Song name
# A B C D E F G H I J K L M N O P Q R S T U V W X Y Z

Matches - Didi My Doe Part 2 tab

INTRO (lots of palm mutes!)

E----------0---0-|-0-0-0-0-0-0-0-0-|-0-0-0-0-0-0-0-0-|-0-0-0---0--0----|
B--5--5--5-4h5-5-|-5-5-2-2-0-0-0-5-|-4-4-4-4-2-2-0-0-|-0-0-5\2-5--7----|
G----------------|-----------------|-----------------|-----------------|
D----------------|-----------------|-----------------|-----------------|
A----------------|-----------------|-----------------|-----------------|
E----------------|-----------------|-----------------|-----------------|

|-0-0-0-0---------|-0-0-0-0-0-0-0-0-|-0-0-0-0-0-0-0-0-|-0-0-0---0-0---|
|-7-7-5-5-7b9r7-5-|-5-5-2-2-0-0-0-5-|-4-4-4-4-2-2-0-0-|-0-0-5\2-5-7---|
|-----------------|-----------------|-----------------|---------------|
|-----------------|-----------------|-----------------|---------------|
|-----------------|-----------------|-----------------|---------------|
|-----------------|-----------------|-----------------|---------------|

|-0-0-0-0-0-0-0-0-|-0---------------|
|-7-5-5-4-4-2-2-2-|-0---------------|
|-----------------|-----------------|
|-----------------|-----------------|
|-----------------|-----------------|
|-----------------|-----------------|

VERSE 1 (you figure out the strumming… duh)
|----------|----------|--------------|----------|-----------|-------------|
|----------|----------|--------------|----------|-----------|-------------|
|----------|----------|--------------|----------|-----------|-------------|
|--9----9--|--6---7---|--9---7---2---|--9---9---|--6---7----|--9---7---2--|
|--7----9--|--7---7---|--6---7---2---|--7---9---|--7---7----|--9---7---2--|
|--7----7--|--4---5---|------5---0---|--7---7---|--4---5----|--7---5---0--|

CHORUS (palm-mutes throughout)
|--4-0---2-------|---0---------|-2-----0-----0--|--x--x--x------------|
|------0---4-0---|-----0-------|---4-0---2---0--|--x--x--x------------|
|--------------2-|-1-----2-----|-----------2-1--|--x--x--x------------|
|----------------|-------------|----------------|--x--x--x---6--6--6--|
|----------------|-------------|----------------|--x--x--x---7--7--7--|
|----------------|-------------|----------------|--x--x--x---4--4--4--|

|--4-0---2-------|---0---------|-2-----0-----0--|--x--x--x----------|
|------0---4-0---|-----0-------|---4-0---2---0--|--x--x--x----------|
|--------------2-|-1-----2-----|-----------2-1--|--x--x--x----------|
|----------------|-------------|----------------|--x--x--x--------7-|
|----------------|-------------|----------------|--x--x--x--------4-|
|----------------|-------------|----------------|--x--x--x----------|

(eighth note strumming for first three bars)
|----------------|-------------|----------------|----------------------|
|----------------|-------------|----------------|----------------------|
|----------------|-------------|----------------|----------------------|
|-7--------------|-----------7-|-7--------------|-9---9---9---9--------|
|-5------------7-|-9---------4-|-5--------------|-6---6---6---6--------|
|--------------5-|-7-----------|----------------|----------------------|

VERSE 2
|----------|----------|--------------|----------|-----------|------------|
|----------|----------|--------------|----------|-----------|------------|
|----------|----------|--------------|----------|-----------|------------|
|--9----9--|--6---7---|--9---7---2---|--9---9---|--6---7----|--9---7-----|
|--7----9--|--7---7---|--6---7---2---|--7---9---|--7---7----|--9---7-----|
|--7----7--|--4---5---|------5---0---|--7---7---|--4---5----|--7---5-----|

|----------|
|----------|
|----------|
|-2--------|
|-2--------|
|-0--------|

PRE CHORUS (repeat as needed, palm-muted)
|--4-0---2---------0-----0--2/4—4/5--2-----0-----------0---0—2/4----------|
|------0---4-0-------------------------4-0---2----------------------------|
|--------------2-1---1-2-----------------------2-1-1-1---1----------------|
|-------------------------------------------------------------------------|
|-------------------------------------------------------------------------|
|-------------------------------------------------------------------------|

FILL (palm-muted eighth notes)
|-------------|------------|
|-------------|------------|
|-------------|------------|
|-7-----------|-9-------7--|
|-7-----------|-9-------4--|
|-5-----------|-7----------|

|----------------|-------------|----------------|-------------------------|
|----------------|-------------|----------------|-------------------------|
|----------------|-------------|----------------|-------------------------|
|-7--------------|-----------7-|-7--------------|-9---9---9---9---9---9---|
|-5------------7-|-9---------4-|-5--------------|-6---6---6---6---6---6---|
|--------------5-|-7-----------|----------------|-------------------------|

Repeat intro with slight alterations… YEA 
Tap to rate this tab
# A B C D E F G H I J K L M N O P Q R S T U V W X Y Z