Guitaretab - guitar tabs
Song name
# A B C D E F G H I J K L M N O P Q R S T U V W X Y Z

Matches - Papercut Skin tab

Hey guys, C-mac here.

This is my FIRST tab up on ultimate guitar so give me a little bit of slack!
This is one of The Matches BEST songs and I've listened to it sooo many times, i thought 
tab out the many guitar parts for your enjoyment.
I tried to divide up the sections for each of the different parts' entries so it's a 
messy but none-the-less complete.
Cheers

--------

Intro
e|-----------------|-----------------|-----------------|-----------------|
B|-----------------|-----------------|-----------------|-----------------|
G|-----------------|-----------------|-----------------|-----------------|
D|-----4-------4---|-----4/--------2-|-----4-------4---|-----------------|
A|-----------------|-----------------|-----------------|-----------2-2-2-|
E|-2---------2-----|-2---------0-0---|-2---------2-----|---0-0-0---------|
   1   2   3   4     1   2   3   4     1   2   3   4     1   2   3   4

Verse 1 (same as Intro)
e|-----------------|-----------------|-----------------|-----------------|
B|-----------------|-----------------|-----------------|-----------------|
G|-----------------|-----------------|-----------------|-----------------|
D|-----4-------4---|-----4/--------2-|-----4-------4---|-----------------|
A|-----------------|-----------------|-----------------|-----------2-2-2-|
E|-2---------2-----|-2---------0-0---|-2---------2-----|---0-0-0---------|

e|-----------------|-----------------|-----------------|-----------------|
B|-----------------|-----------------|-----------------|-----------------|
G|-----------------|-----------------|-----------------|-----------------|
D|-----4-------4---|-----4/--------2-|-----4-------4---|-----4-----------|
A|-----------------|-----------------|-----------------|-----------------|
E|-2---------2-----|-2---------0-0---|-2---------2-----|-2---------0-0-0-|

Verse 1 (cont.)                                         Lead In (Pre-Chorus)
e|-----------------|-----------------|-----------------||-----------------|
B|-----------------|-----------------|-----------------||-----------------|
G|-----4-------4---|-----4/----------|-----------------||-----------------|
D|-----------------|---------------2-|-----4-------4---||-----------4-----|
A|-2---------2-----|-2---------------|-----------------||---------2---3---|
E|-----------------|-----------0-0---|-2---------2-----||-2-0---0---------|
   1   2   3   4     1   2   3   4     1   2   3   4      1   2   3   4

Pre-Chorus: Guitar 1
e|-----------------|-----------------|-----------------|---4-4-4-4-4-4-4-|
B|-----------------|-----------------|-6-6-6---6-6-6-6-|-----------------|
G|-6-6-6-6-6-6-6-6-|-7-7---7-9-9---9-|-6-6-6---6-6-6-6-|---6-6-6-6-6-6-6-|
D|-6-6-6-6-6-6-6-6-|-7-7---7-9-9---9-|-----------------|-----------------|
A|-4-4-4-4-4-4-4-4-|-5-5---5-7-7---7-|-----------------|-----------------|
E|-----------------|-----------------|-----------------|-----------------|

Pre-Chorus: Guitar 2
e|-------------------------|-------------------------|-----------------|
B|-------------------------|-------------------------|-----------------|
G|-13-13-13-13-13-13-13-13-|-14-14----14-16-16----16-|-6-6-6---6-6-6-6-|
D|-------------------------|-------------------------|-----------------|
A|-11-11-11-11-11-11-11-11-|-12-12----12-14-14----14-|-4-4-4---4-4-4-4-|
E|-------------------------|-------------------------|-----------------|

e|---9--9--9--9--9--9--9--|
B|---9--9--9--9--9--9--9--|
G|---10-10-10-10-10-10-10-|
D|---11-11-11-11-11-11-11-|
A|------------------------|
E|---9--9--9--9--9--9--9--|

Chorus 1: Guitar 1
e|-------------------------|          |--------------------------|
B|-------------------------|  Repeat  |--------------------------|
G|-11-11-11-11-11-11-11-11-|    X7    |-----11-11----11----11-11-|
D|-x--x--x--x--x--x--x--x--|          |-----x--x-----x-----x--x--|
A|-9--9--9--9--9--9--9--9--|   Then:  |-----9--9-----9-----9--9--|
E|-------------------------|          |--------------------------|
          				 1     2     3     4

Chorus 1: Guitar 2
e|-----------------|-----------------|-----------------|-----------------|
B|-----------------|-----------------|-----------------|-----------------|
G|(3)-(3)-(3)-(3)--|-----------------|-----------------|-----------------|
D|-4-4-4-4-4-4-4-4-|-6-6-6-6-6-6-6-6-|-7-7-7-7-7-7-7-7-|-9-9-9-9-9-9-9-9-|
A|-----------------|-----------------|-----------------|-----------------|
E|-2-2-2-2-2-2-2-2-|-4-4-4-4-4-4-4-4-|-5-5-5-5-5-5-5-5-|-7-7-7-7-7-7-7-7-|

e|-----------------|-----------------|-----------------|-----------------|
B|-----------------|-----------------|-----------------|-----------------|
G|(3)-(3)-(3)-(3)--|-----------------|-----------------|-----------------|
D|-4-4-4-4-4-4-4-4-|-6-6-6-6-6-6-6-6-|-7-7-7-7-7-7-7-7-|---7-7---7---7-7-|
A|-----------------|-----------------|-----------------|-----------------|
E|-2-2-2-2-2-2-2-2-|-4-4-4-4-4-4-4-4-|-5-5-5-5-5-5-5-5-|---5-5---5---5-5-|
                                                         1   2   3   4
Verse 2 (Intro)
e|-----------2-----|-----------------|
B|----------(2)----|-----------------|
G|-----------------|-----------------|
D|-----4-------4---|-----4/--------2-|
A|-----------------|-----------------|
E|-2---------------|-2---------0-0---|

Verse 2 (same as Verse 1)

Pre-Chorus

Chorus 2: Guitar 1, 2
e|-----------------|-----------------|-----------------|-----------------|
B|-----------------|-----------------|-----------------|-----------------|
G|-----------------|-6-6-6-6-6-6-6-6-|-7-7-7-7-7-7-7-7-|-9-9-9-9-9-x-x-x-|
D|-4-4-4-4-4-4-4-4-|-6-6-6-6-6-6-6-6-|-7-7-7-7-7-7-7-7-|-9-9-9-9-9-x-x-x-|
A|-4-4-4-4-4-4-4-4-|-4-4-4-4-4-4-4-4-|-5-5-5-5-5-5-5-5-|-7-7-7-7-7-x-x-x-|
E|-2-2-2-2-2-2-2-2-|-----------------|-----------------|-----------------|

e|-----------------|-----------------|-----------------|-----------------|
B|-----------------|-----------------|-----------------|-----------------|
G|-----------------|-6-6-6-6-6-6-6-6-|-7-7-7-7-7-7-7-7-|-7-7-7-7-7-7-7-7-|
D|-4-4-4-4-4-4-4-4-|-6-6-6-6-6-6-6-6-|-7-7-7-7-7-7-7-7-|-7-7-7-7-7-7-7-7-|
A|-4-4-4-4-4-4-4-4-|-4-4-4-4-4-4-4-4-|-5-5-5-5-5-5-5-5-|-5-5-5-5-5-5-5-5-|
E|-2-2-2-2-2-2-2-2-|-----------------|-----------------|-----------------|

Chorus 2(cont.): Guitar 1
e|-----------------|-----------------|-----------------|-----------------|
B|-----------------|-----------------|-----------------|-----------------|
G|-----------------|-6-6-6-6-6-6-6-6-|-7-7-7-7-7-7-7-7-|-9-9-9-9-9-9-x-x-|
D|-4-4-4-4-4-4-4-4-|-6-6-6-6-6-6-6-6-|-7-7-7-7-7-7-7-7-|-9-9-9-9-9-9-x-x-|
A|-4-4-4-4-4-4-4-4-|-4-4-4-4-4-4-4-4-|-5-5-5-5-5-5-5-5-|-7-7-7-7-7-7-x-x-|
E|-2-2-2-2-2-2-2-2-|-----------------|-----------------|-----------------|

e|-----------------|-----------------|-----------------|-----------------|
B|-----------------|-----------------|-----------------|-----------------|
G|-----------------|-6-6-6-6-6-6-6-6-|-7-7-7-7-7-7-7-7-|-7-7-7-7-7-7-7-7-|
D|-4-4-4-4-4-4-4-4-|-6-6-6-6-6-6-6-6-|-7-7-7-7-7-7-7-7-|-7-7-7-7-7-7-7-7-|
A|-4-4-4-4-4-4-4-4-|-4-4-4-4-4-4-4-4-|-5-5-5-5-5-5-5-5-|-5-5-5-5-5-5-5-5-|
E|-2-2-2-2-2-2-2-2-|-----------------|-----------------|-----------------|

e|-----------------|-----------------|
B|-----------------|-----------------|
G|-9-9-9-9-9-9-9-9-|-9-9-9-9-9-9-9-9-|
D|-9-9-9-9-9-9-9-9-|-9-9-9-9-9-9-9-9-|
A|-7-7-7-7-7-7-7-7-|-7-7-7-7-7-7-7-7-|
E|-----------------|-----------------|

Chorus 2(cont.): Guitar 2
e|-------------------------|-------------------------|-------------------------|
B|-------------------------|-------------------------|-------------------------|
G|-11-11-11-11-11-11-11-11-|-10-10-10-10-10-10-10-10-|-11-11-11-11-11-11-11-11-|
D|-x--x--x--x--x--x--x--x--|-x--x--x--x--x--x--x--x--|-x--x--x--x--x--x--x--x--|
A|-9--9--9--9--9--9--9--9--|-8--8--8--8--8--8--8--8--|-9--9--9--9--9--9--9--9--|
E|-------------------------|-------------------------|-------------------------|

e|-------------------------|-------------------------|-------------------------|
B|-------------------------|-------------------------|-------------------------|
G|-11-11-11-11-11-11-11-11-|-11-11-11-11-11-11-11-11-|-10-10-10-10-10-10-10-10-|
D|-x--x--x--x--x--x--x--x--|-x--x--x--x--x--x--x--x--|-x--x--x--x--x--x--x--x--|
A|-9--9--9--9--9--9--9--9--|-9--9--9--9--9--9--9--9--|-8--8--8--8--8--8--8--8--|
E|-------------------------|-------------------------|-------------------------|

e|-------------------------|-------------------------|-------------------------|
B|-------------------------|-------------------------|-------------------------|
G|-11-11-11-11-11-11-11-11-|-11-11-11-11-11-11-11-11-|-11-11-11-11-11-11-11-11-|
D|-x-x--x--x--x--x--x--x--|-x--x--x--x--x--x--x--x--|-x--x--x--x--x--x--x--x--|
A|-9--9--9--9--9--9--9--9--|-9--9--9--9--9--9--9--9--|-9--9--9--9--9--9--9--9--|
E|-------------------------|-------------------------|-------------------------|

e|-------------------------|
B|-------------------------|
G|-11-11-11-11-11-11-11-11-|
D|-x--x--x--x--x--x--x--x--|
A|-9--9--9--9--9--9--9--9--|
E|-------------------------|

Chorus 2(cont.): Guitar 3
e|-----------------|-----------------|-----------------|-----------------|
B|-----------------|-----------------|-----------------|-----------------|
G|-----------------|-----------------|-----------------|-----------------|
D|-4-4-4-4-4-4-4-4-|-6-6-6-6-6-6-6-6-|-7-7-7-7-7-7-7-7-|-9-9-9-9-9-9-9-9-|
A|-xx-x-x-x-x-x-x-|-xx-x-x-x-x-x-x-|-xx-x-x-x-x-x-x-|-xx-x-x-x-x-x-x-|
E|-2-2-2-2-2-2-2-2-|-4-4-4-4-4-4-4-4-|-5-5-5-5-5-5-5-5-|-7-7-7-7-7-7-7-7-|

e|-----------------|-----------------|-----------------|-----------------|
B|-----------------|-----------------|-----------------|-----------------|
G|-----------------|-----------------|-----------------|-----------------|
D|-4-4-4-4-4-4-4-4-|-6-6-6-6-6-6-6-6-|-7-7-7-7-7-7-7-7-|-7-7-7-7-7-7-7-7-|
A|-xx-x-x-x-x-x-x-|-xx-x-x-x-x-x-x-|-xx-x-x-x-x-x-x-|-xx-x-x-x-x-x-x-|
E|-2-2-2-2-2-2-2-2-|-4-4-4-4-4-4-4-4-|-5-5-5-5-5-5-5-5-|-5-5-5-5-5-5-5-5-|

e|-----------------|-----------------|
B|-----------------|-----------------|
G|-----------------|-----------------|
D|-9-9-9-9-9-9-9-9-|-9-9-9-9-9-9-9-9-|
A|-xx-x-x-x-x-x-x-|-xx-x-x-x-x-x-x-|
E|-7-7-7-7-7-7-7-7-|-7-7-7-7-7-7-7-7-|

Bridge: Guitar 1
e|-------9--9-9--9-------|-9--9-9--9-------9-9-|-------9--9-9--9-------|-12-12-10-10-9-9-------|
B|-------10-9-10-9-------|-10-9-10-9-----------|-------10-9-10-9-------|-----------------10-10-|
G|-11-11-----------11-11-|-----------11-11-----|-11-11-----------11-11-|-----------------------|
D|-----------------------|---------------------|-----------------------|-----------------------|
A|-----------------------|---------------------|-----------------------|-----------------------|
E|-----------------------|---------------------|-----------------------|-----------------------|
  Repeat X7 Then...


e|-------9--9-9--9-------|-9--9-9--9-------9-9-|-------------------------|-------------------------|
B|-------10-9-10-9-------|-10-9-10-9-----------|-------------------------|-------------------------|
G|-11-11-----------11-11-|-----------11-11-----|-11-11-11-11-13-13-13-13-|-14-14-14-14-16-16-16-16-|
D|-----------------------|---------------------|-------------------------|-------------------------|
A|-----------------------|---------------------|-9--9--9--9--11-11-11-11-|-12-12-12-12-14-14-14-14-|
E|-----------------------|---------------------|-------------------------|-------------------------|

e|-------------------------|-------------------------|
B|-------------------------|-------------------------|
G|-11-11-11-11-13-13-13-13-|-14-14-14-14-18-18-18-18-|
D|-------------------------|-------------------------|
A|-9--9--9--9--11-11-11-11-|-12-12-12-12-16-16-16-16-|
E|-------------------------|-------------------------|

Bridge: Guitar 2
e|-----------------|
B|-----------------|
G|-----Rest--------|
D|--For-8-bars-----|
A|-----------------|
E|-----------------|

e|-----------------|-----------------|-----------------|-----------------|
B|-----------------|-----------------|-----------------|-----------------|
G|-----------------|-----------------|-----------------|-----------------|
D|-4-4-------------|-----------------|-4-4-------------|-----------------|
A|-4-4-------------|-----------------|-4-4-------------|-----------------|
E|-2-2-------------|-----------------|-2-2-------------|-----------------|
PM . .                                 . .

e|-----------------|-----------------|-----------------|-----------------|
B|-----------------|-----------------|-----------------|-----------------|
G|-7-7-------------|-----------------|-9-9-------------|-----------------|
D|-7-7-------------|-----------------|-9-9-------------|-----------------|
A|-5-5-------------|-----------------|-7-7-------------|-----------------|
E|-----------------|-----------------|-----------------|-----------------|
PM . .                                 . .

e|-----------------|-----------------|-----------------|-----------------|
B|-----------------|-----------------|-----------------|-----------------|
G|-----------------|-----------------|-----------------|-----------------|
D|-4-4-4-4-4-4-4-4-|-4-4-4-4-4-2-2-2-|-4-4-4-4-4-4-4-4-|-4-4-4-4-4-4-4-4-|
A|-4-4-4-4-4-4-4-4-|-4-4-4-4-4-2-2-2-|-4-4-4-4-4-4-4-4-|-4-4-4-4-4-4-4-4-|
E|-2-2-2-2-2-2-2-2-|-2-2-2-2-2-0-0-0-|-2-2-2-2-2-2-2-2-|-2-2-2-2-2-2-2-2-|
PM . . . . . . . . . . . . . . . . . . . . . . . . . . . . . . . . . . .
[ Tab from: http://www.guitaretab.com/m/matches/79437.html ]
e|-----------------|-----------------|-----------------|-----------------|
B|-----------------|-----------------|-----------------|-----------------|
G|-7-7-7-7-7-7-7-7-|-7-7-7-7-7-7-7-7-|-9-9-9-9-9-9-9-9-|-9-9-9-9-9-9-9-9-|
D|-7-7-7-7-7-7-7-7-|-7-7-7-7-7-7-7-7-|-9-9-9-9-9-9-9-9-|-9-9-9-9-9-9-9-9-|
A|-5-5-5-5-5-5-5-5-|-5-5-5-5-5-5-5-5-|-7-7-7-7-7-7-7-7-|-7-7-7-7-7-7-7-7-|
E|-----------------|-----------------|-----------------|-----------------|
PM . . . . . . . . . . . . . . . . . . . . . . . . . . . . . . . . . . .

e|-----------------|-----------------|
B|-----------------|-----------------|
G|-----------------|-----------------|
D|-2-2-2-2-2-2-2-2-|-2-2-2-2-2-2-2-2-|
A|-2-2-2-2-2-2-2-2-|-2-2-2-2-2-2-2-2-|
E|-0-0-0-0-0-0-0-0-|-0-0-0-0-0-0-0-0-|

Bridge: Guitar 3 (repeat X3 following each ending)
e||-----------2-----|-----------------|-----------2-----|-----------------|
B||----------(2)----|-----------------|----------(2)----|-----------------|
G||-----------------|-----------------|-----------------|-----------------|
D||-----4-4-----4---|-----4/--------2-|-----4-4-----4---|-----4/--------2-|
A||-----------------|-----------------|-----------------|-----------------|
E||-2---------------|-2---------0-0---|-2---------------|-2---------0-0---|
    1   2   3   4     1   2   3   4
                                                        1st Ending---------||
e|-----------5-----|-----------5-----|-----------7-----|-------------------||
B|-----------7-----|-----------7-----|-----------9-----|-------------------||
G|-----------------|-----------------|-----------------|-------------------||
D|-----7-7-----7---|-----7-7-----7---|-----9-9-----9---|-----9-9---9-9-----||
A|-----------------|-----------------|-----------------|-------------------||
E|-5---------------|-5---------------|-7---------------|-7-----------------||

  2nd Ending-------   3rd Ending-------------------------------------------||
e|-----------------||-----------7-----|-----------------|------------------||
B|-----------------||-----------9-----|-----------------|------------------||
G|-----4-----4-4---||-----------------|-9999999999999999|-9999999999999999-||
D|-----------------||-----9-9-----9---|-xxxxxxxxxxxxxxxx|-xxxxxxxxxxxxxxxx-||
A|-----------------||-----------------|-7777777777777777|-7777777777777777-||
E|\2-------2-------||-7---------------|-----------------|------------------||


Intro


Verse 3: Guitars 1, 2
e|-----------------|-----------------|-----------------|-----------------|
B|-----------------|-----------------|-----------------|-----------------|
G|-----------------|-----------------|-----------------|-----------------|
D|-----4-------4---|-----4/--------2-|-----4-------4---|-----------------|
A|-----------------|-----------------|-----------------|-----------2-2-2-|
E|-2---------2-----|-2---------0-0---|-2---------2-----|---0-0-0---------|

e|-----------------|-----------------|-----------------|-----------------|
B|-----------------|-----------------|-----------------|-----------------|
G|-----------------|-----------------|-----------------|-----------------|
D|------Rest-------|------Rest-------|-----4-------4---|-----------------|
A|-----------------|-----------------|-----------------|-----------------|
E|-----------------|-----------------|-2---------2-----|---0-0-0-22220---|
PM                                                               ....

                                               Lead-In: Chorus 2(clean)
e|-----------------|---------x-x-x-x-||-----------------|-----------------|
B|-----------------|---------x-x-x-x-||-----------------|-----------------|
G|-4-4-4-6-6-6-7-7-|-7-9-9-9-x-x-x-x-||-----------------|-6-6-6-6-6-6-----|
D|-----------------|---------x-x-x-x-||-4-4-4-4-4-4-4-4-|-6-6-6-6-6-6(2)--|
A|-2-2-2-4-4-4-5-5-|-5-7-7-7-x-x-x-x-||-4-4-4-4-4-4-4-4-|-4-4-4-4-4-4(2)--|
E|-----------------|---------x-x-x-x-||-2-2-2-2-2-2-2-2-|------------(0)--|
PM

Chorus 2: Guitar 1
e|-----------------|-----------------|-----------------|-----------------|
B|-----------------|-----------------|-----------------|-----------------|
G|-7-7-7-7-7-7-7-7-|-9-9-9-9-9-9-9-9-|-----------------|-6-6-6-6-6-6-6-6-|
D|-7-7-7-7-7-7-7-7-|-9-9-9-9-9-9-9-9-|-4-4-4-4-4-4-4-4-|-6-6-6-6-6-6-6-6-|
A|-5-5-5-5-5-5-5-5-|-7-7-7-7-7-7-7-7-|-4-4-4-4-4-4-4-4-|-4-4-4-4-4-4-4-4-|
E|-----------------|-----------------|-2-2-2-2-2-2-2-2-|-----------------|

e|-----------------|-----------------|
B|-----------------|-----------------|
G|-7-7-7-7-7-7-7-7-|-7-7-7-7-x-x-x-x-|
D|-7-7-7-7-7-7-7-7-|-7-7-7-7-x-x-x-x-|
A|-5-5-5-5-5-5-5-5-|-5-5-5-5-x-x-x-x-|
E|-----------------|-----------------|

e|-----------------|-----------------|-----------------|-----------------|
B|-----------------|-----------------|-----------------|-----------------|
G|-----------------|-6-6-6-6-6-6-6-6-|-7-7-7-7-7-7-7-7-|-9-9-9-9-9-9-9-9-|
D|-4-4-4-4-4-4-4-4-|-6-6-6-6-6-6-6-6-|-7-7-7-7-7-7-7-7-|-9-9-9-9-9-9-9-9-|
A|-4-4-4-4-4-4-4-4-|-4-4-4-4-4-4-4-4-|-5-5-5-5-5-5-5-5-|-7-7-7-7-7-7-7-7-|
E|-2-2-2-2-2-2-2-2-|-----------------|-----------------|-----------------|

e|-----------------|-----------------|-----------------|-----------------|
B|-----------------|-----------------|-----------------|-----------------|
G|-----------------|-6-6-6-6-6-6-6-6-|-7-7-7-7-7-7-7-7-|-7-7-7-7-7-7-7-7-|
D|-4-4-4-4-4-4-4-4-|-6-6-6-6-6-6-6-6-|-7-7-7-7-7-7-7-7-|-7-7-7-7-7-7-7-7-|
A|-4-4-4-4-4-4-4-4-|-4-4-4-4-4-4-4-4-|-5-5-5-5-5-5-5-5-|-5-5-5-5-5-5-5-5-|
E|-2-2-2-2-2-2-2-2-|-----------------|-----------------|-----------------|

e|-----------------|-----------------|
B|-----------------|-----------------|
G|-9-9-9-9-9-9-9-9-|-9-9-9-9-9-9-9-9-|
D|-9-9-9-9-9-9-9-9-|-9-9-9-9-9-9-9-9-|
A|-7-7-7-7-7-7-7-7-|-7-7-7-7-7-7-7-7-|
E|-----------------|-----------------|

Chorus 2(cont.): Guitar 2
e|-------------------------|-------------------------|-------------------------|
B|-------------------------|-------------------------|-------------------------|
G|-11-11-11-11-11-11-11-11-|-11-11-11-11-11-11-11-11-|-11-11-11-11-11-11-11-11-|
D|-x-x--x--x--x--x--x--x--|-x--x--x--x--x--x--x--x--|-x--x--x--x--x--x--x--x--|
A|-9--9--9--9--9--9--9--9--|-9--9--9--9--9--9--9--9--|-9--9--9--9--9--9--9--9--|
E|-------------------------|-------------------------|-------------------------|

e|-------------------------|-------------------------|---------------------|
B|-------------------------|-------------------------|---------------------|
G|-10-10-10-10-10-10-10-10-|-11-11-11-11-11-11-11-11-|-11-11-11-11-x-x-x-x-|
D|-x--x--x--x--x--x--x--x--|-x--x--x--x--x--x--x--x--|-x--x--x--x--x-x-x-x-|
A|-8--8--8--8--8--8--8--8--|-9--9--9--9--9--9--9--9--|-9--9--9--9--x-x-x-x-|
E|-------------------------|-------------------------|---------------------|

e|-------------------------|-------------------------|-------------------------|
B|-------------------------|-------------------------|-------------------------|
G|-11-11-11-11-11-11-11-11-|-10-10-10-10-10-10-10-10-|-11-11-11-11-11-11-11-11-|
D|-x--x--x--x--x--x--x--x--|-x--x--x--x--x--x--x--x--|-x--x--x--x--x--x--x--x--|
A|-9--9--9--9--9--9--9--9--|-8--8--8--8--8--8--8--8--|-9--9--9--9--9--9--9--9--|
E|-------------------------|-------------------------|-------------------------|

e|-------------------------|-------------------------|-------------------------|
B|-------------------------|-------------------------|-------------------------|
G|-11-11-11-11-11-11-11-11-|-11-11-11-11-11-11-11-11-|-10-10-10-10-10-10-10-10-|
D|-x--x--x--x--x--x--x--x--|-x--x--x--x--x--x--x--x--|-x--x--x--x--x--x--x--x--|
A|-9--9--9--9--9--9--9--9--|-9--9--9--9--9--9--9--9--|-8--8--8--8--8--8--8--8--|
E|-------------------------|-------------------------|-------------------------|

e|-------------------------|-------------------------|-------------------------|
B|-------------------------|-------------------------|-------------------------|
G|-11-11-11-11-11-11-11-11-|-11-11-11-11-11-11-11-11-|-11-11-11-11-11-11-11-11-|
D|-x-x--x--x--x--x--x--x--|-x--x--x--x--x--x--x--x--|-x--x--x--x--x--x--x--x--|
A|-9--9--9--9--9--9--9--9--|-9--9--9--9--9--9--9--9--|-9--9--9--9--9--9--9--9--|
E|-------------------------|-------------------------|-------------------------|

e|-------------------------|
B|-------------------------|
G|-11-11-11-11-11-11-11-11-|
D|-x--x--x--x--x--x--x--x--|
A|-9--9--9--9--9--9--9--9--|
E|-------------------------|

Chorus 2: Guitar 3
e|-----------------|-----------------|-----------------|-----------------|
B|-----------------|-----------------|-----------------|-----------------|
G|-----------------|-----------------|-----------------|-----------------|
D|-7-7-7-7-7-7-7-7-|-9-9-9-9-9-9-9-9-|-4-4-4-4-4-4-4-4-|-6-6-6-6-6-6-6-6-|
A|-xx-x-x-x-x-x-x-|-xx-x-x-x-x-x-x-|-xx-x-x-x-x-x-x-|-xx-x-x-x-x-x-x-|
E|-5-5-5-5-5-5-5-5-|-7-7-7-7-7-7-7-7-|-2-2-2-2-2-2-2-2-|-4-4-4-4-4-4-4-4-|

e|-----------------|-----------------|-----------------|-----------------|
B|-----------------|-----------------|-----------------|-----------------|
G|-----------------|-----------------|-----------------|-----------------|
D|-7-7-7-7-7-7-7-7-|-7-7-7-7-x-x-x-x-|-4-4-4-4-4-4-4-4-|-6-6-6-6-6-6-6-6-|
A|-xx-x-x-x-x-x-x-|-xx-x-x-x-x-x-x-|-xx-x-x-x-x-x-x-|-xx-x-x-x-x-x-x-|
E|-5-5-5-5-5-5-5-5-|-5-5-5-5-x-x-x-x-|-2-2-2-2-2-2-2-2-|-4-4-4-4-4-4-4-4-|

e|-----------------|-----------------|-----------------|-----------------|
B|-----------------|-----------------|-----------------|-----------------|
G|-----------------|-----------------|-----------------|-----------------|
D|-7-7-7-7-7-7-7-7-|-9-9-9-9-9-9-9-9-|-4-4-4-4-4-4-4-4-|-6-6-6-6-6-6-6-6-|
A|-xx-x-x-x-x-x-x-|-xx-x-x-x-x-x-x-|-xx-x-x-x-x-x-x-|-xx-x-x-x-x-x-x-|
E|-5-5-5-5-5-5-5-5-|-7-7-7-7-7-7-7-7-|-2-2-2-2-2-2-2-2-|-4-4-4-4-4-4-4-4-|

e|-----------------|-----------------|-----------------|-----------------|
B|-----------------|-----------------|-----------------|-----------------|
G|-----------------|-----------------|-----------------|-----------------|
D|-7-7-7-7-7-7-7-7-|-7-7-7-7-7-7-7-7-|-9-9-9-9-9-9-9-9-|-9-9-9-9-9-9-9-9-|
A|-xx-x-x-x-x-x-x-|-xx-x-x-x-x-x-x-|-xx-x-x-x-x-x-x-|-xx-x-x-x-x-x-x-|
E|-5-5-5-5-5-5-5-5-|-5-5-5-5-5-5-5-5-|-7-7-7-7-7-7-7-7-|-7-7-7-7-7-7-7-7-|

Outro: Guitar 1
e|-------9--9-9--9-------|-9--9-9--9-------9-9-|-------9--9-9--9-------|-12-12-10-10-9-9-------|
B|-------10-9-10-9-------|-10-9-10-9-----------|-------10-9-10-9-------|-----------------10-10-|
G|-11-11-----------11-11-|-----------11-11-----|-11-11-----------11-11-|-----------------------|
D|-----------------------|---------------------|-----------------------|-----------------------|
A|-----------------------|---------------------|-----------------------|-----------------------|
E|-----------------------|---------------------|-----------------------|-----------------------|

e|-------9--9-9--9-------|-9--9-9--9-------9-9-|-------9--9-9--9-------|-12-12-10-10-------------||
B|-------10-9-10-9-------|-10-9-10-9-----------|-------10-9-10-9-------|-------------------------||
G|-11-11-----------11-11-|-----------11-11-----|-11-11-----------11-11-|----------------10-10-10-||
D|-----------------------|---------------------|-----------------------|----------------9--9--9--||
A|-----------------------|---------------------|-----------------------|----------------8--8--8--||
E|-----------------------|---------------------|-----------------------|-------------------------||


Outro: Guitar 2
e|-----------------|-----------------|-----------------|-----------------|
B|-----------------|-----------------|-----------------|-----------------|
G|-----------------|-----------------|-----------------|-----------------|
D|-4-4-------------|-----------------|-4-4-------------|-----------------|
A|-4-4-------------|-----------------|-4-4-------------|-----------------|
E|-2-2-------------|-----------------|-2-2-------------|-----------------|
PM . .                                 . .

e|-----------------|-----------------|-----------------|-----------------||
B|-----------------|-----------------|-----------------|-----------------||
G|-7-7-------------|-----------------|-9-9-------------|-----------------||
D|-7-7-------------|-----------------|-9-9-------------|-----------3-3-3-||
A|-5-5-------------|-----------------|-7-7-------------|-----------3-3-3-||
E|-----------------|-----------------|-----------------|-----------1-1-1-||
PM . .                                 . .

Outro: Guitar 3
e|-----------2-----|-----------------|-----------2-----|-----------------|
B|----------(2)----|-----------------|----------(2)----|-----------------|
G|-----------------|-----------------|-----------------|-----------------|
D|-----4-4-----4---|-----4/--------2-|-----4-4-----4---|-----4/--------2-|
A|-----------------|-----------------|-----------------|-----------------|
E|-2---------------|-2---------0-0---|-2---------------|-2---------0-0---|
   1   2   3   4     1   2   3   4

e|-----------5-----|-----------5-----|-----------7-----|-----------------||
B|-----------7-----|-----------7-----|-----------9-----|-----------------||
G|-----------------|-----------------|-----------------|-----------------||
D|-----7-7-----7---|-----7-7-----7---|-----9-9-----9---|-----9-9---3-3-3-||
A|-----------------|-----------------|-----------------|-----------2-2-2-||
E|-5---------------|-5---------------|-7---------------|-7---------1-1-1-||

There you have it.
Q's and concerns, send em' to 03c.mac03@gmail.com.
Peace.

Legend:
| /  Slide up
| \  Slide down
| h  Hammer-on
| p  Pull-off
| ~  Vibrato
| +  Harmonic
| x  Muted Note
| () Grace Note
| PM Palm Muted Note (indicated by dots..)
Related for Papercut Skin tab