Song name
# A B C D E F G H I J K L M N O P Q R S T U V W X Y Z

Matches - Sunburn Versus The Rhinovirus tab

Band: The Matches
Song: "Sunburn Versus the Rhinovirus"
Album: Decomposer 2006

This is how the album version of the song is composed,
or at least this is how I think it was arranged.

There's a lead guitar part backing different parts of the chorus;
I don't know how to play it, but I'm guessing it's close to the pre chorus.

Intro

E|------------------------|
B|----10------------------|
G|-11----11-9-11-9--------|
D|-----------------9-11-9-|
A|------------------------|
E|------------------------|
 |                        |
E|------------------------|
B|------------------------|
G|-----2------------------|
D|--4-----4-2--4-2--------|
A|-----------------2--4-0-|
E|------------------------|

Pre Verse

  Gtr 1                 Gtrs 1 & 2
  Gtrs 1 & 2 & 3        Gtrs 1 & 2 & 3
E|---------------------|---------------------|
B|---------------------|---------------------|
G|---------------------|---------------------|
D|-7-7-6-6-------------|-7-7-6-6-------------|
A|-------------2-4-2-4-|-------------2-4-2-4-|
E|---------2-2---------|---------2-2---------|

  Gtrs 1 & 2 & 3        Gtrs 1 & 2 & 3
  Gtrs 1 & 2 & 3        Gtrs 1 & 2 & 3
E|---------------------|---------------------|
B|---------------------|---------------------|
G|---------------------|---------------------|
D|-7-7-6-6-------------|-7-7-6-6-------------|
A|-------------2-4-2-4-|-------------2-4-2-4-|
E|---------2-2---------|---------2-2---------|
                       |     guitar four     |
                      E|---------------------|
                      B|10-10-9-9------------|
                      G|---------------------|
                      D|------------9-11-9-11|
                      A|---------9-9---------|
                      E|---------------------|

Verse x2

E|---------------------|---------------------|
B|---------------------|---------------------|
G|---------------------|---------------------|
D|-7-7-6-6-------------|-7-7-6-6-------------|
A|-------------2-4-2-4-|-------------2-4-2-4-|
E|---------2-2---------|---------2-2---------|

Pre Chorus x2

E|-----|--------------------------------------|
B|-2~--|--------------------------------------|
G|---4~|--------------------------------------|
D|-----|--------------------------------------|
A|-----|--------------------------------------|
E|-----|--------------------------------------|
       |                                      |
E|-----|--------------------------------------|
B|-----|-------10----12-10----10--------------|
G|-----|-11-11----11-------11----7-7-9-7-9-11-|
D|-----|--------------------------------------|
A|-----|--------------------------------------|
E|-----|--------------------------------------|

Chorus

E|-----------------|-------------------|
B|-----------------|-------------------|
G|-----------------|-------------------|
D|-4--6-6--7-7-x-x-|-4--6-6--7-7-7-7-7-|
A|-4--6-6--7-7-x-x-|-4--6-6--7-7-7-7-7-|
E|-2--4-4--5-5-x-x-|-2--4-4--5-5-5-5-5-|
                                 * * *

E|-----------------|-------------------|
B|-----------------|-------------------|
G|-----------------|-------------------|
D|-4--6-6--7-7-x-x-|-4--6-6--7-7-7-7-7-|
A|-4--6-6--7-7-x-x-|-4--6-6--7-7-7-7-7-|
E|-2--4-4--5-5-x-x-|-2--4-4--5-5-5-5-5-|
                                 * * *

E|-------------------|-------------------|
B|-------------------|-3-----------------|
G|-------------------|(2)---------(2-2-2)|
D|-4--6-6--7-7-7-7-7-|(2)---------(2-2-2)|
A|-4--6-6--7-7-7-7-5-|-2-----------0-0-0-|
E|-2--4-4--5-5-5-5-5-|-------------------|
               * * *               * * *

E|-------------------|-------------------|
B|-3-----------------|-3-3----3-3----3-3-|
G|(2)---------(2-2-2)|(2-2)--(2-2)--(2-2)|
D|(2)---------(2-2-2)|(2-2)--(2-2)--(2-2)|
A|-2-----------0-0-0-|-2-2----2-2----2-2-|
E|-------------------|-------------------|
               * * *

Interlude Part One: repeat the intro twice.

Interlude Part Two

E|---------------|
B|---------------|
G|---------------|
D|-11\\\\\\\\\19-|
A|---------------|
E|---------------|

Bridge Part One

E|-----------------|-----------------|-----------------|-----------------|
B|-----3-3-----3-3-|-----3-3-----3-3-|-----3-3-----3-3-|-----------------|
G|-----------------|-----------------|-----------------|-----1-1-----1-1-|
D|-0-0-----0-0-----|-----------------|-----------------|-----------------|
A|-----------------|-2-2-----2-2-----|-0-0-----0-0-----|-----------------|
E|-----------------|-----------------|-----------------|-2-2-----2-2-----|

Bridge Part Two: I'm not quite sure about that part.

Chorus

E|-----------------|-------------------|
B|-----------------|-------------------|
G|-----------------|-------------------|
D|-4--6-6--7-7-x-x-|-4--6-6--7-7-7-7-7-|
A|-4--6-6--7-7-x-x-|-4--6-6--7-7-7-7-7-|
E|-2--4-4--5-5-x-x-|-2--4-4--5-5-5-5-5-|
                                 * * *

E|-----------------|-------------------|
B|-----------------|-------------------|
G|-----------------|-------------------|
D|-4--6-6--7-7-x-x-|-4--6-6--7-7-7-7-7-|
A|-4--6-6--7-7-x-x-|-4--6-6--7-7-7-7-7-|
E|-2--4-4--5-5-x-x-|-2--4-4--5-5-5-5-5-|
                                 * * *

E|-------------------|-------------------|
B|-------------------|-3-----------------|
G|-------------------|(2)---------(2-2-2)|
D|-4--6-6--7-7-<<<<<-|(2)---------(2-2-2)|
A|-4--6-6--7-7-<<<<<-|-2-----------0-0-0-|
E|-2--4-4--5-5-<<<<<-|-------------------|
                                   * * *

E|-------------------|-------------------|
B|-3-----------------|-3-3----3-3----3-3-|
G|(2)---------(2-2-2)|(2-2)--(2-2)--(2-2)|
D|(2)---------(2-2-2)|(2-2)--(2-2)--(2-2)|
A|-2-----------0-0-0-|-2-2----2-2----2-2-|
E|-------------------|-------------------|
               * * *

E|-----------------|-------------------|
B|-----------------|-------------------|
G|-----------------|-------------------|
D|-4--6-6--7-7-x-x-|-4--6-6--7-7-7-7-7-|
A|-4--6-6--7-7-x-x-|-4--6-6--7-7-7-7-7-|
E|-2--4-4--5-5-x-x-|-2--4-4--5-5-5-5-5-|
                                 * * *

E|-------------------|-------------------|
B|-3-----------------|-3-----------------|
G|(2)---------(2-2-2)|(2)---------(2-2-2)|
D|(2)---------(2-2-2)|(2)---------(2-2-2)|
A|-2-----------0-0-0-|-2-----------0-0-0-|
E|-------------------|-------------------|
               * * *               * * *

E|-------------------|-------------------|
B|-3-3----3-3----3-3-|-3-3----3-3----3-3-|
G|(2-2)--(2-2)--(2-2)|(2-2)--(2-2)--(2-2)|
D|(2-2)--(2-2)--(2-2)|(2-2)--(2-2)--(2-2)|
A|-2-2----2-2----2-2-|-2-2----2-2----2-2-|
E|-------------------|-------------------|

E|-----------------|-------------------|
B|-----------------|-------------------|
G|-----------------|-------------------|
D|-4--6-6--7-7-x-x-|-4--6-6--7-7-7-7-7-|
A|-4--6-6--7-7-x-x-|-4--6-6--7-7-7-7-7-|
E|-2--4-4--5-5-x-x-|-2--4-4--5-5-5-5-5-|
                                 * * *

Outro

  Gtrs 1 & 2 & 3
E|---------------------|---------------------|---------------------|
B|---------------------|---------------------|---------------------|
G|---------------------|---------------------|---------------------|
D|-7-7-6-6-------------|-7-7-6-6-------------|-7-7-6-6-------------|
A|-------------2-4-2-4-|-------------2-4-2-4-|-------------2-4-2-4-|
E|---------2-2---------|---------2-2---------|---------2-2---------|
                                             |     guitar four     |
                                            E|---------------------|
                                            B|10-10-9-9------------|
                                            G|---------------------|
                                            D|------------9-11-9-11|
                                            A|---------9-9---------|
                                            E|---------------------|

Repeat the intro once.

Then end on an F# power chord.
Tap to rate this tab
 
# A B C D E F G H I J K L M N O P Q R S T U V W X Y Z