Song name
# A B C D E F G H I J K L M N O P Q R S T U V W X Y Z

Matches - Lazier Than Furniture tab

Artist: The Matches
Song: Lazier Than Furniture
Album: Decomposer


~ = Vibrato
\ = Slide down

Standard Tuning(EADGBE)


Intro

Guitar 1
E--------------------|
B--------------------|
G--4\3-3-4-3-444444--|    x3
D------2-2-2-222222--|
A--------------------|
E--------------------|

Guitar 2   
E------------------------------------|
B------------------------------------|
G--3-3-3-3-3-3-3--3-3-3-3-3-3-3--33--|  (Comes in after Guitar 1's riff has 
D--2-2-2-2-2-2-2--2-2-2-2-2-2-2--22--|   been played once)
A------------------------------------|
E------------------------------------|


Chorus 1

E----------------------------|-------------------|-----------------------|
B--12-10-8---8-10-12-10-8----|-------------------|-----------------------|
G----------9--------------9--|--5-5-5-5-6-6-6-6--|----------7---------7--|
D----------------------------|--5-5-5-5-6-6-6-6--|------7-7-------7-7----|
A----------------------------|--3-3-3-3-4-4-4-4--|--5-5-------5-5--------|
E----------------------------|-------------------|-----------------------|

E-------------------|-----------------------|----------------------------|
B-------------------|-----------------------|--12-10-8---8-10-12-10-8----|
G--5-5-5-5-6-6-6-6--|----------7---------7--|----------9--------------9--|
D--5-5-5-5-6-6-6-6--|------7-7-------7-7----|----------------------------|
A--3-3-3-3-4-4-4-4--|--5-5-------5-5--------|----------------------------|
E-------------------|-----------------------|----------------------------|


E-------------------|--------------------------------------------------|
B-------------------|--------------------------------------------------|
G--5-5-5-5-6-6-6-6--|--6-6-6-6-6-6-6-6-7-7-7-7-7-7-7-7-9-9-9-9-9-9-9-9-|
D--5-5-5-5-6-6-6-6--|--x-x-x-x-x-x-x-x-x-x-x-x-x-x-x-x-x-x-x-x-x-x-x-x-|
A--3-3-3-3-4-4-4-4--|--4-4-4-4-4-4-4-4-5-5-5-5-5-5-5-5-7-7-7-7-7-7-7-7-|
E-------------------|--------------------------------------------------|


Verse

E------------------|--------------------|-----------------------|
B------------------|--3333333344444444--|-----------------------|
G-9-9-9-9-9-9-9-9--|--2222222222222222--|-----------------------|
D-x-x-x-x-x-x-x-x--|--------------------|-----------------------|
A-7-7-7-7-7-7-7-7--|--------------------|--x10-10-1010-x9-9-99--|
E------------------|--------------------|-----------------------|

E--------------------|-----------------------|
B--3333333344444444--|-----------------------|
G--2222222222222222--|-----------------------|
D--------------------|-----------------------|
A--------------------|--10~----9~------------|
E--------------------|-----------------------|


Chorus 2

E----------------------------|-------------------|-----------------------|
B--12-10-8---8-10-12-10-8----|-------------------|-----------------------|
G----------9--------------9--|--5-5-5-5-6-6-6-6--|----------7---------7--|
D----------------------------|--5-5-5-5-6-6-6-6--|------7-7-------7-7----|
A----------------------------|--3-3-3-3-4-4-4-4--|--5-5-------5-5--------|
E----------------------------|-------------------|-----------------------|

E-------------------|-----------------------|----------------------------|
B-------------------|-----------------------|--12-10-8---8-10-12-10-8----|
G--5-5-5-5-6-6-6-6--|----------7---------7--|----------9--------------9--|
D--5-5-5-5-6-6-6-6--|------7-7-------7-7----|----------------------------|
A--3-3-3-3-4-4-4-4--|--5-5-------5-5--------|----------------------------|
E-------------------|-----------------------|----------------------------|

E-------------------|--------------------------------------------------|
B-------------------|--------------------------------------------------|
G--5-5-5-5-6-6-6-6--|--6-6-6-6-6-6-6-6-7-7-7-7-7-7-7-7-9-9-9-9-9-9-9-9-|
D--5-5-5-5-6-6-6-6--|--x-x-x-x-x-x-x-x-x-x-x-x-x-x-x-x-x-x-x-x-x-x-x-x-|
A--3-3-3-3-4-4-4-4--|--4-4-4-4-4-4-4-4-5-5-5-5-5-5-5-5-7-7-7-7-7-7-7-7-|
E-------------------|--------------------------------------------------|


Bridge

Guitar 1
E--------------------|
B--------------------|
G--4\3-3-4-3-444444--|    x4
D------2-2-2-222222--|
A--------------------|
E--------------------|

Guitar 2   
E---------------------------------------------------| 
B---------------------------------------------------| 
G--3-3-3-3-3-3-3--3-3-3-3-3-3-3--33--3-3-3-3-3-3-3--|  
D--2-2-2-2-2-2-2--2-2-2-2-2-2-2--22--3-3-3-3-3-3-3--|   
A---------------------------------------------------| 
E---------------------------------------------------| 
(Comes in after Guitar 1's riff has been played once)


Chorus 3

Guitar 1
E-------------------------------------------------| 
B-------------------------------------------------| 
G--16-14-12-9-12-14-16-14-12-9-12-14--16---13-----|   x3
D--x--x--x--x-x--x--x--x--x--x-x--x---x----x------|
A--14-12-10-7-10-12-14-12-10-7-10-12--14---11-----|  
E-------------------------------------------------| 

E------------------------------------------------------------------|
B------------------------------------------------------------------|
G--5-5-5-5-5-5-5-5-7-7-7-7-7-7-7-7-6-6-6-6-6-6-6-6-6-6-6-6-6-6-6-6-|
D--x-x-x-x-x-x-x-x-x-x-x-x-x-x-x-x-x-x-x-x-x-x-x-x-x-x-x-x-x-x-x-x-|
A--3-3-3-3-3-3-3-3-5-5-5-5-5-5-5-5-4-4-4-4-4-4-4-4-4-4-4-4-4-4-4-4-|
E------------------------------------------------------------------|

E-----------------------------------|
B-----------------------------------|
G--9-9-9-9-9-9-9-9-9-9-9-9-9-9-9-9--|
D--x-x-x-x-x-x-x-x-x-x-x-x-x-x-x-x--|
A--7-7-7-7-7-7-7-7-7-7-7-7-7-7-7-7--|
E-----------------------------------|

Guitar 2
E-------------------| 
B-------------------| 
G--3-4-3-4-3-43434--|   x6    (played through Guitar 1's First Riff)
D--2-2-2-2-2-22222--|   
A-------------------| 
E-------------------| 


Chorus / Outro

Guitar 1
E----------------------------------------------------|
B----------------------------------------------------|
G--3-3-3-3x3-3-3-3--5-5-5-5-5-5-5-5-6-6-6-6-6-6-6-6--|    x3
D--2-2-2-2x2-2-2-2--x-x-x-x-x-x-x-x-x-x-x-x-x-x-x-x--|
A-------------------3-3-3-3-3-3-3-3-4-4-4-4-4-4-4-4--|
E----------------------------------------------------|

E------------------------------------------------------------------|
B------------------------------------------------------------------|
G--5-5-5-5-5-5-5-5-6-6-6-6-6-6-6-6-7-7-7-7-7-7-7-7-9-9-9-9-9-9-9-9-|
D--x-x-x-x-x-x-x-x-x-x-x-x-x-x-x-x-x-x-x-x-x-x-x-x-x-x-x-x-x-x-x-x-|
A--3-3-3-3-3-3-3-3-4-4-4-4-4-4-4-4-5-5-5-5-5-5-5-5-7-7-7-7-7-7-7-7-|
E------------------------------------------------------------------|

E------------------|
B------------------|
G-9-9-9-9-9-9-9-9--|
D-x-x-x-x-x-x-x-x--|
A-7-7-7-7-7-7-7-7--|
E------------------|


Tap to rate this tab
 
# A B C D E F G H I J K L M N O P Q R S T U V W X Y Z