Song name
# A B C D E F G H I J K L M N O P Q R S T U V W X Y Z

Matches - My Soft And Deep tab

Artist: The Matches
Song: My Soft and Deep
Album: Decomposer


~ = Let Ring
/ = Slide Up
\ = Slide Down
. = Palm Mute
^ = Bend String
h = Hammer on
p = Pull Off
r = Roll Bend Over
b = Release bend
v = Vibrato

Standard Tuning(EADGBE)


Intro/verse

Guitar 1
E------------------------------------------------------------|
B---------------------------1---------------------------7-5--|    x3
G------------------------------------------------------------|    
D------------------------------------------------------------|
A------------2-----------2---------------2-----------2-------|
E--0-0-2-0-0-0-0-0-2-0-0-0-----0-0-2-0-0-0-0-0-2-0-0-0-------|

E-------------------------------------------------------|
B---------------------------1---------------------------|    
G-------------------------------------------------------|    
D-------------------------------------------------------|
A------------2-----------2------------------------------|
E--0-0-2-0-0-0-0-0-2-0-0-0-----0-0-2-0-0-0-0-0-2-0-0-0--|


Bridge / Pre Chorus

Guitar 1
E---------19~--|
B--12-13-------|    x4
G--------------|    
D--------------|
A--------------|
E--------------|

Guitar 2 
E--------------|
B--8~----------|    x4
G--9~----------|    
D--9~----------|
A--7~----------|
E--------------|


Chorus 1

Guitar 1
E-------------------------------------------------------------------|
B--3/5~----3/5~----3/5~----3/5~----7/8~----7/8~----7/8~----7/8~-----|    
G-------------------------------------------------------------------|    
D-------------------------------------------------------------------|
A-------------------------------------------------------------------|
E-------------------------------------------------------------------|

E--------------------------------|
B--3/5~----3/5~----3/5~----3/5~--|    
G--------------------------------|    
D--------------------------------|
A--------------------------------|
E--------------------------------|

   . .             . .
E------------------------------------------|
B--6-6-5-6--5-6-5--6-6-5-6--5-6-5----------|    
G----------------------------------5~^~/---|    
D----------------------------------3~------|
A------------------------------------------|
E------------------------------------------|
   . .             . .

Guitar 2
   ................................................................
E-------------------------------------------------------------------|
B-------------------------------------------------------------------|   x2  
G-------------------------------------------------------------------|    
D-------------------------------------------------------------------|
A--0333333303333333033333330333333346666666466666664666666646666666-|
E--0111111101111111011111110111111124444444244444442444444424444444-|
   ................................................................


verse

Guitar 1
E------------------------------------------------------------|
B---------------------------1---------------------------7-5--|    x3
G------------------------------------------------------------|    
D------------------------------------------------------------|
A------------2-----------2-----------------------------------|
E--0-0-2-0-0-0-0-0-2-0-0-0-----0-0-2-0-0-0-0-0-2-0-0-0-------|

E-------------------------------------------------------|
B---------------------------1---------------------------|    
G-------------------------------------------------------|    
D-------------------------------------------------------|
A------------2-----------2------------------------------|
E--0-0-2-0-0-0-0-0-2-0-0-0-----0-0-2-0-0-0-0-0-2-0-0-0--|


Bridge / Pre Chorus

Guitar 1
E---------19~--|
B--12-13-------|    x4
G--------------|    
D--------------|
A--------------|
E--------------|

Guitar 2 
E--------------|
B--8~----------|    x4
G--9~----------|    
D--9~----------|
A--7~----------|
E--------------|

Chorus 2

Guitar 1
E-------------------------------------------------------------------|
B--3/5~----3/5~----3/5~----3/5~----7/8~----7/8~----7/8~----7/8~-----|    
G-------------------------------------------------------------------|    
D-------------------------------------------------------------------|
A-------------------------------------------------------------------|
E-------------------------------------------------------------------|

E------------------------------------------------------------------|
B--3/5~----3/5~----3/5~----3/5~------------------------------------|    
G--------------------------------99999999-10----12----13-----14----|    
D--------------------------------xxxxxxxx-x-----x-----x------x-----|
A--------------------------------77777777-8-----10----11-----12----|
E------------------------------------------------------------------|

E--------------------------------|
B--------------------------------|    
G--10----12----13-----14----10~--|    
D--x-----x-----x------x-----x~---|
A--8-----10----11-----12----8~---|
E--------------------------------|

Guitar 2
   ................................................................
E-------------------------------------------------------------------|
B-------------------------------------------------------------------|   x2  
G-------------------------------------------------------------------|    
D-------------------------------------------------------------------|
A--0333333303333333033333330333333346666666466666664666666646666666-|
E--0111111101111111011111110111111124444444244444442444444424444444-|
   ................................................................

   ................................
E------------------------------------|
B------------------------------------|   x2   
G------------------------------------|    
D------------------------------------|
A--44444444666666667777777788888888--|
E--22222222444444445555555566666666--|
   ................................

    ..  ..  ..  ..
E-------------------|
B-------------------|   x2   
G-------------------|    
D-------------------|
A--444-666-777-888--|
E--222-444-555-666--|
    ..  ..  ..  ..  


Bridge / Pre Chorus

Guitar 1
E---------19~--|
B--12-13-------|    x8
G--------------|    
D--------------|
A--------------|
E--------------|

E--------------|
B--------------|    x8
G--------------|    
D--9~---/13~---|
A--------------|
E--------------|

Guitar 2 
E--------------|
B--8~----------|    x8
G--9~----------|    
D--9~----------|
A--7~----------|
E--------------|


Outro

Guitar 1  (solo)
E------------------------------------------------------------|
B------------------------------------------------------------|    
G--12/13 13\10-13-14p13-^18r17b^17-14-----------15-18-^17-16-|    
D-------------------------------------14h15p14v--------------|
A------------------------------------------------------------|
E------------------------------------------------------------|

E--------------------------------------------18p15h18p15-19h20p19-|
B--------------------------20p16h20p16h20p16----------------------|    
G--21p17h21p17h21p17h21p17----------------------------------------|    
D-----------------------------------------------------------------|
A-----------------------------------------------------------------|
E-----------------------------------------------------------------|

E--------------------------15h17p15-13-15-----------------------|
B-^18-18-16-18v-18~-----18--------------------------------------|    
G---------------------------------------------------4-4-4-4--4--|    
D---------------------------------------------------2-2-2-2--2--|
A-----------------------------------------0-0-2-2\--------------|
E---------------------------------------------------------------|

Guitar 2
E-----------------------------------------------------------|
B-----------------------------------------------------------|    
G--9--/10----12----13----14----10----12----13----14----10~--|    
D--7--/x-----x-----x-----x-----x-----x-----x-----x-----x~---|
A--7--/8-----10----11----12----8-----10----11----10----8~---|
E-----------------------------------------------------------|









Tap to rate this tab
 
# A B C D E F G H I J K L M N O P Q R S T U V W X Y Z