Song name
# A B C D E F G H I J K L M N O P Q R S T U V W X Y Z

Matches - Clumsy Heart tab

Artist: The Matches
Song: Clumsy Heart
Album: Decomposer



/ = Slide Up
\ = Slide Down
\\ = Slide In Downwards
. = Palm Mute


Standard Tuning(EADGBE)


INTRO

E---------------------------------------|
B---------------------------------------|    
G---------------------------------------|    
D---------------------------------------|
A------------0-0-0000-5-5-5-5-7777-8888-|
E-\\-2-2-2-2----------------------------|


VERSE 1

Guitar 1
E------------------------------------|
B------------------------------------|    
G------------------------------------|    
D------------------------------------|
A-------------0000---------7777-8888-|
E------------------------------------|

E------------------------------------|
B------------------------------------|    
G------------------------------------|    
D------------------------------------|
A---------0-0-0000-5-5-5-5-7777-8888-|
E-2-2-2-2----------------------------|

E-----------------|
B-----------------|    
G-----------------|    
D-----------------|
A-9-0-9-0-9-0-9-0-|
E-----------------|

Guitar 2
E-5---5---5--------|
B---5---5---5--14\-|    
G------------------|    
D------------------|
A------------------|
E------------------|

CHORUS

Guitar 1                 .    .
E-------------------------------|
B---------------------10---10---|    
G---------------------9----9----|    
D---------------------7----7----|
A------------------------0----0-|
E-7777-5-0-777777-5-0-----------|
                         .    .
                               .    .
E--------------------------------10---|
B----------------------------10--10---|    
G----------------------------9--------|    
D-9999-7---121212121212-10-7-7--------|   121212 = 12's
A--------7---------------------0----0-|
E-------------------------------------|
                               .    .

E------------------------------------|
B------------------------------------|    
G------------------------------------|    
D-9999-7---121212121212-10-7-7-9-7-5-|  
A--------7---------------------------|
E------------------------------------|


                   
E-------------------------------|
B-------------------------------|  x2  
G-------------------------------|       101010 = 10's 
D-------------------------------|
A-10101010-9-0-101010101010-9-0-|
E-------------------------------|   

E-------------|
B-------------|    
G-------------|    
D-------------|
A-9-0-9-5-7-8-|
E-------------|       

Guitar 2                 .    .
E-------------------------------|
B---------------------10---10---|    
G---------------------9----9----|    
D---------------------7----7----|
A------------------------0----0-|
E-7777-5-0-777777-5-0-----------|
                         .    .
                         .    .
E--------------------------10---|
B---------------------10---10---|    
G---------------------9---------|    
D---------------------7---------|
A------------------------0----0-|
E-7777-5-0-777777-5-0-----------|
                         .    .
E---------------------|
B---------------------|    
G---------------------|    
D---------------------|
A---------------------|
E-7777-5-0-777777-5-0-|
                        

VERSE 2

Guitar 1
E------------------------------------|
B------------------------------------|   x4 
G------------------------------------|    
D------------------------------------|
A---------0-0-0000-5-5-5-5-7777-8888-|
E-2-2-2-2----------------------------|

E-----------------------|
B-----------------------|    x2
G---------7-7-----------|    
D-4-4-7-7-7-7-----------|
A-4-4-7-7-5-5-7777-8888-|
E-2-2-5-5---------------|

E-----------------|
B-----------------|  x2    
G-----------------|    
D-----------------|
A-9-0-9-0-9-0-9-0-|
E-----------------|

Guitar 2
E---------------------------------------|
B---------------------------------------|   x4 
G---------------------------------------|    
D---------------------------------------|
A-9\---------0-0-0000---------7777-8888-|
E---------------------------------------|

E-------------|
B-------------|    
G---------7-7-|    
D-4-4-7-7-7-7-|
A-4-4-7-7-5-5-|
E-2-2-5-5-----|

E------------------------------------|
B------------------------------------|    
G------------------------------------|    
D------------------------------------|
A---------0-0-0000-5-5-5-5-7777-8888-|
E-2-2-2-2----------------------------|


<>


BRIDGE Part 1

Guitar 1
E-5---5---5---5---5---5-------|
B---5---5---5---5---5---5-14\-|    x4
G-----------------------------|    
D-----------------------------|
A-----------------------------|
E-----------------------------|

E-----------------|
B-----------------|  x2    
G-----------------|    
D-----------------|
A-9-0-9-0-9-0-9-0-|
E-----------------|

Guitar 2 (can be heard slightly)
E------------------------------------|
B------------------------------------|    x4
G------------------------------------|    
D------------------------------------|
A---------0-0-0000-5-5-5-5-7777-8888-|
E-2-2-2-2----------------------------|


<>


VERSE 3

Guitar 1
E-------|----------------------------|---------------------|
B-------|----------------------------|---------------------|    
G-------|----------------------------|---------------------|    
D-------|----------------------------|---------------------|
A-9\----|----0000-----7777-88888-9\--|----------7777-88888-|
E-------|----------------------------|---------------------|

E-----------------------|
B-----------------------|    x2
G---------7-7-----------|    
D-4-4-7-7-7-7-----------|
A-4-4-7-7-5-5-7777-8888-|
E-2-2-5-5---------------|

E-----------------|
B-----------------|  x2    
G-----------------|    
D-----------------|
A-9-0-9-0-9-0-9-0-|
E-----------------|

Guitar 2
E-------------|
B-------------|    
G---------7-7-|    
D-4-4-7-7-7-7-|
A-4-4-7-7-5-5-|
E-2-2-5-5-----|

E------------------------------------|
B------------------------------------|    
G------------------------------------|    
D------------------------------------|
A---------0-0-0000-5-5-5-5-7777-8888-|
E-2-2-2-2----------------------------|


FINAL CHORUS

Guitar 1  .    .
E----------------|
B------10---10---|    
G------9----9----|    
D-x-x--7----7----|
A-x-x-----0----0-|
E-x-x------------|
          .    .

Guitar 1                        .    .
E--------------------------------------|
B----------------------------10---10---|    
G----------------------------9----9----|    
D-9999-7---121212121212-10-7-7----7----|
A--------7----------------------0----0-|
E--------------------------------------|
                                .    .
                               .    .
E---------------------------------10---|
B----------------------------10---10---|    
G----------------------------9---------|    
D-9999-7---121212121212-10-7-7---------|  
A--------7----------------------0----0-|
E--------------------------------------|
                               .    .

E------------------------------------|
B------------------------------------|    
G------------------------------------|    
D-9999-7---121212121212-10-7-7-9-7-5-|  
A--------7---------------------------|
E------------------------------------|
                
E-------------------------------|
B-------------------------------|    
G-------------------------------|       
D-------------------------------|
A-10101010-9-0-101010101010-9-0-|
E-------------------------------|

Guitar 1
E-5---5---5---5---5---5-------|
B---5---5---5---5---5---5-14\-|    x4
G-----------------------------|    
D-----------------------------|
A-----------------------------|
E-----------------------------|

Guitar 2 (can be heard slightly)
E------------------------------------|
B------------------------------------|    x4
G------------------------------------|    
D------------------------------------|
A---------0-0-0000-5-5-5-5-7777-8888-|
E-2-2-2-2----------------------------|


Tap to rate this tab
# A B C D E F G H I J K L M N O P Q R S T U V W X Y Z