Guitaretab - guitar tabs
Song name
# A B C D E F G H I J K L M N O P Q R S T U V W X Y Z

Mateo Lynch - Alta Sociedad tab

No encontre el tab de esta cancion en otro lado asi que decidi hacerlo yo mismo. Es mi 
tab, espero que les guste. Cualquier consulta:
            --------> crow._93@hotmail.com <--------


Verso: (ustedes le dan el ritmo)

-------------------------------------------------------|
-------------------------------------------------------|
--5----------------------------------------------------|
--5----5----3----5-------------------------------------|   x4
--3----5----3----5-------------------------------------|
-------3----1----3-------------------------------------|

estoy cansado de que me digan que ser
estoy cansado de tener que verme bien
yo solo quiero ser, no pretenden ser
alguien que no soy...

Coro:(ustedes le dan el ritmo)
-------------------------------------------------------|
-------------------------------------------------------|
--5----------------------------------------------------|
--5----5----7----3-------------------------------------|   x2
--3----5----7----3-------------------------------------|
-------3----5----1-------------------------------------|

quiero saber lo que es vivir
quiero sentir lo que es ser feliz
quiero tocar algo real y volaaaar

Post-Coro:
-------------------------------------------------------|
-------------------------------------------------------|
--5-x-x-x-x--------------------------------------------|
--5-x-x-x-x-5-x-x-x-x-7-x-x-x-x-7-x-x-x-x--------------|   x2
--3-x-x-x-x-5-x-x-x-x-7-x-x-x-x-7-x-x-x-x--------------|
------------3-x-x-x-x-5-x-x-x-x-5-x-x-x-x--------------|

Alta sociedad, alta sociedad

Verso 2:(ustedes le dan el ritmo)
[ Tab from: http://www.guitaretab.com/m/mateo-lynch/91081.html ]
-------------------------------------------------------|
-------------------------------------------------------|
--5----------------------------------------------------|
--5----5----3----5-------------------------------------|   x4
--3----5----3----5-------------------------------------|
-------3----1----3-------------------------------------|

quiero saltar al vacio sin pensar
que pasara, que sera de mi
dejando todo lo que tengo atras
y encontrar mi libertad

Coro: (ustedes le dan el ritmo)

-------------------------------------------------------|
-------------------------------------------------------|
--5----------------------------------------------------|
--5----5----7----3-------------------------------------| x2
--3----5----7----3-------------------------------------|
-------3----5----1-------------------------------------|

quiero saber lo que es vivir
quiero sentir lo que es ser feliz
quiero tocar algo real y volaaaar


Post-Coro:
-------------------------------------------------------|
-------------------------------------------------------|
--5-x-x-x-x--------------------------------------------|
--5-x-x-x-x-5-x-x-x-x-7-x-x-x-x-7-x-x-x-x--------------|   x4
--3-x-x-x-x-5-x-x-x-x-7-x-x-x-x-7-x-x-x-x--------------|
------------3-x-x-x-x-5-x-x-x-x-5-x-x-x-x--------------|

alta sociedad, alta sociedad, alta sociedad, alta sociedad

Coro: (ustedes le dan el ritmo)

-------------------------------------------------------|
-------------------------------------------------------|
--5----------------------------------------------------|
--5----5----7----3-------------------------------------| x2
--3----5----7----3-------------------------------------|
-------3----5----1-------------------------------------|

quiero saber lo que es vivir
quiero sentir lo que es ser feliz
quiero tocar algo real y volaaaar


Post-Coro:
-------------------------------------------------------|
-------------------------------------------------------|
--5-x-x-x-x--------------------------------------------|
--5-x-x-x-x-5-x-x-x-x-7-x-x-x-x-7-x-x-x-x--------------|   x4
--3-x-x-x-x-5-x-x-x-x-7-x-x-x-x-7-x-x-x-x--------------|
------------3-x-x-x-x-5-x-x-x-x-5-x-x-x-x--------------|

alta sociedad, alta sociedad, alta sociedad, alta sociedad


www.mateolynch.com
Advertisement will be closed in 10 seconds