Song name
# A B C D E F G H I J K L M N O P Q R S T U V W X Y Z

Mates Of Mine - Live Your Life tab

Tabbed by: Uniadi
Email: savarpojjken@hotmail.com
Song: Live your life
Artist: Mates of mine

Note: Ive been listening to the song for a year now and decided to do this tab. If 
you want the solo tab on this song, write a comment or something like that.
You have to find the Rhythm by yourself. 

The song is played capoed at the 2th fret

Intro

E|-----------------------------------------------------------------------|
B|------------------------------------------------0-h1^0-----------------|
G|------------------------------------------------0----------------------|
D|-------0-------------0--------------2-----------2-------------0--------|
A|-------2-------------0--------------2-----------3-------------2--------|
E|--3-------------2--------------0------------------------------3--------|

E|-----------------------------------------------------------------------|
B|-----------------------------------------------------------------------|
G|------------------------------------------------0-----0----------------|
D|-------0-------------0--------------2-----------2-----0-------0--------|
A|-----2-------------0----------------2-----------3-----2-------2--------|
E|--3-------------2--------------0------------------------------3--------|


Rage on the G chord, feel the rhythm. 
E|----3------------------------------------------------------------------|
B|----3------------------------------------------------------------------|
G|----0------------------------------------------------------------------|
D|----0------------------------------------------------------------------|
A|----2------------------------------------------------------------------|
E|----3------------------------------------------------------------------|

Vers
E|-----------------------------------------------------------------------|
B|------------------------------------------------0-h1^0-----------------|
G|------------------------------------------------0----------------------|
D|-------0-------------0--------------2-----------2-------------0--------|
A|-------2-------------0--------------2-----------3-------------2--------|
E|--3-------------2--------------0------------------------------3--------|

E|-----------------------------------------------------------------------|
B|-----------------------------------------------------------------------|
G|------------------------------------------------0-----0----------------|
D|-------0-------------0--------------2-----------2-----0-------0--------|
A|-----2-------------0----------------2-----------3-----2-------2--------|
E|--3-------------2--------------0------------------------------3--------|

Bridge
E|----------------------------------------------------------------------|
B|---1-----------1--/--3---------1--/--1------------3-------------------|
G|---2-----------0-----0---------0-----0----------0---------------------|
D|---2-----------2--/--4---------2--/--4--------4-----------------------|
A|---0-----------3--/--5---------3--/--5------5-------------------------|
E|----------------------------------------------------------------------|



Chorus
E|-----------------------------------------------------------------------|
B|------------------------------------------------0-h1^0-----------------|
G|------------------------------------------------0----------------------|
D|-------0-------------0--------------2-----------2-------------0--------|
A|-------2-------------0--------------2-----------3-------------2--------|
E|--3-------------2--------------0------------------------------3--------|

E|-----------------------------------------------------------------------|
B|-----------------------------------------------------------------------|
G|------------------------------------------------0-----0----------------|
D|-------0-------------0--------------2-----------2-----0-------0--------|
A|-----2-------------0----------------2-----------3-----2-------2--------|
E|--3-------------2--------------0------------------------------3--------|


http://www.myspace.com/matesofmine
Tap to rate this tab
 
# A B C D E F G H I J K L M N O P Q R S T U V W X Y Z