Song name
# A B C D E F G H I J K L M N O P Q R S T U V W X Y Z

Mates Of Mine - Sitting By The Ocean tab

	Uniadi
Savarpojjken@hotmail.com
Mail me if you want more tabs from Mates of mine!

Intro

Use bare chords!

E|--------------------------------------------------------------------------|
B|----------8------------------8------------------9------------------12-----|
G|----------9------------9-----9----9-------9-----9----9-------12----12---12|
D|----10-------10--------9----------9-------9----------9-------12---------12|
A|----10-------10-------7-----------7------8-----------8-----10-----------10|
E|--8----------8------------------------------------------------------------|


Play the same bare chords (C, Em, F, G) rest of the song (vers and Chorus)

Stick

E|-------------------------------------------------------|
B|----8-----8-----8-----8----10-----10----10----10-------|
G|----9-----9-----9-----9----10-----10----10----10-------|
D|----9-----9-----9-----9----10-----10----10----10-------|
A|----7-----7-----7-----7-----8-----8-----8-----8--------|
E|-------------------------------------------------------|

E|--------------------------------------------------------------|
B|----12-----12-----12-----12-----12-----12-----12-----12-------|
G|----12-----12-----12-----12-----12-----12-----12-----12-------|
D|----12-----12-----12-----12-----12-----12-----12-----12-------|
A|----10-----10-----10-----10-----10-----10-----10-----10-------|
E|--------------------------------------------------------------|

Solo, This is not 100% accurate, atleast the first part Is right but the end have 
some minor fails.
I havenít been so serious with the rhythm, I think you can find it by yourselves.

E|-13-12-10-12-10----10-----------------------------------------|
B|----------------13----13----13-12-10-12-10----10--------------|
G|-------------------------------------------12----12-----------|
D|--------------------------------------------------------------|
A|--------------------------------------------------------------|
E|--------------------------------------------------------------|
	
E|-13-12-10-12-10----10----10------------------------------------|
B|----------------13----13----13-12-13-12-10-12-10----10---------|
G|-------------------------------------------------12----12------|
D|---------------------------------------------------------------|
A|---------------------------------------------------------------|
E|---------------------------------------------------------------|

E|---------------------------------------------------------------|
B|---------------------------------------------------------------|
G|--10----10-----------------------------------------------------|
D|-----12----12--10-/12------------------------------------------|
A|---------------------------------------------------------------|
E|---------------------------------------------------------------|

http://www.myspace.com/matesofmine	
Tap to rate this tab
 
# A B C D E F G H I J K L M N O P Q R S T U V W X Y Z