Song name
# A B C D E F G H I J K L M N O P Q R S T U V W X Y Z

Mates Of Mine - Transistor Radio tab

Uniadi
Savarpojjken@hotmail.com
Mail me if you want more tabs from Mates of mine!


Whole song!
E|--------------------------------------------------|
B|--------------9-----------------------------------|
G|------9-----9-------------------------------------|
D|----9-----7----------11-------9-------------------|
A|--7---------------11--------9---------------------|
E|---------------7/9--------7-----------------------|

Intro guitar 2
E|-------------------------------------------------------|
B|-------------------------------------------------------|
G|----------6---9---6-------6----------------------------|
D|-------9--------------9-------9----6-------------------|
A|----7-----------------------------------9--7---7h9-----|
E|-------------------------------------------------------|

Myspace.com/matesofmine
Tap to rate this tab
 
# A B C D E F G H I J K L M N O P Q R S T U V W X Y Z