Song name
# A B C D E F G H I J K L M N O P Q R S T U V W X Y Z

Mathieu Chedid - Je Dis Aime tab

Le tout avec au Capo 2,
     

    Em  G          Am  D7     Em   G          Am  G7    
E||---0----------|-------2-0-|---0----------|--------------|
B||---0---0----0-|-1-1-1-1-1-|---0---0----0-|-1-1-1-1-1--1-|
G||---0---0----0-|-2-2-2-2-2-|---0---0----0-|-2-2-3-3-3--3-|
D||---2---0----0-|-2-2-0-0---|---2---0----0-|-2-2-2-2-2--2-|
A||---2---0h-2-2-|-0-0-------|---2---0h-2-2-|-0-0-3-3-3--3-|
E||-0---3--------|-----2-2-2-|-0---3--------|--------------|

  Em  G          Am  D7      Em  G          Am  G7   
|---0----------|-------2-0-|---0----------|-------|
|---0---0----0-|-1-1-1-1-1-|---0---0----0-|-1-1-1-|
|---0---0----0-|-2-2-2-2-2-|---0---0----0-|-2-2-3-|
|---2---0----0-|-2-2-0-0---|---2---0----0-|-2-2-2-|
|---2---0h-2-2-|-0-0-------|---2---0h-2-2-|-0-0-3-|
|-0---3--------|-----2-2-2-|-0---3--------|-------|   
   
  Em       G        Am    D7              Em        G            Am    C7
|-----0-----------|-----0-------2-------|-----0----------------|-----0-------------|
|-----------------|-------------1-------|-----0----------------|-----1---------1-0-| 
|-----------------|---2-----0h2---------|-----------------0----|---2-----------3-0-|
|---2---2-------0-|-------------------0-|---2---2--------------|-2-----2---0h2---0-|
|-----------0H2---|-0-------------------|---------2---0h2-----0|-0-------3---------|
|-0-------3-------|-------2-------2-----|-0---------3-------3--|-------------------|

  Em        G              Am        D7           Em       G             Am     C7              
|-----0------------------|-----------------2----|-----0----------------|----0------|
|------------------------|-----1-----------1--1-|-----0----------------|-1--1---1~-|
|------------------0-----|-----2-------0h2----2-|----------------0-----|-2------3~-|
|---2---2----------0-----|---2-----0---0-0------|---2----------------0-|-2------2~-|
|---------2----0h2-----0-|-0-----0----------0---|------------0h2---2---|-0------3~-|
|-0---------3--------3---|-----------2----------|-0------0-3-----------|-----------|

  D7 C7 G6  B7 Em      B7  Em      B7  D7 C7 G6  B7 Em      B7  Em      B7
|-0--0----|-0--0-------0-|-0-------0-|-0--0--0-|-0--0-------0-|-0-------0-|
|-3--1--0-|-0--0-------0-|-0-------0-|-3--1--0-|-0--0-------0-|-0-------0-|
|-5--3--4-|-2--0-------2-|-0-------2-|-5--3--4-|-2--0-------2-|-0-------2-|
|-4--2--2-|-1--2-------1-|-2-------1-|-4--2--2-|-1--2-------1-|-2-------1-|
|-5--3--x-|-x--2-------x-|-2-------x-|-5--3--x-|-x--2-------x-|-2-------x-|
|-------3-|-2--0-0-1-2-2-|-0-0-1-2-2-|-------3-|-2--0-0-1-2-2-|-0-0-1-2-2-|

  D7   C7   B7  Em  G         Am    D7        Em  G       Am   C7
|-0----0----0-|---0---------|----0----2--0-|---0--------|------0-|
|-3----1----0-|---0---0---0-|----1----1--1-|---0--0---0-|-1--1-1-|
|-5----3----2-|---0---0---0-|----2----2--2-|---0--0---0-|-2--2-3-|
|-4----2----1-|---2---0---0-|----2----0--0-|---2--0---0-|-2--2-2-|
|-5----3----2-|---2---0h2-2-|-0--0---------|---2--0h2-2-|-0--0-3-|
|-------------|-0---3-------|-------2------|-0---3------|--------|

  Em      G              Am       D7             Em      G               Am   C7           
|-----0----------------|-----0------------2----|-----0-----------------|-----------------|
|----------------------|------------------1----|-----------------------|---1--1------1---|
|----------------0-----|---2----------0h2----0-|-----------------0-----|---2--3----------|
|---2------------------|------------0----------|---2-----------------0-|-2----2---0h2--0-|
|-------------0h2----0-|-0-----00----------0---|-------------0h2---2---|-0----3---3------|
|-0-----0-3-3------3---|----------2------------|-0-----0-3-3-----------|--------0--------|

 Em      G                Am    D7                Em        G              Am   C7
|-----0-----------------|-----0-------------2---|-----0------------------|------0-|
|-----------------------|-----1-------------1---|-----0------------------|---1--1-|
|-----------------0-----|---------------0h2---0-|------------------0-----|-2----3-|
|---2-------------------|---2-----0-----0-------|---2---2-0--------------|-2----2-|
|-------------0h2-----0-|-0-----0---------------|---------------0h2----0-|-0----3-|
|-0-----0-3-3-------3---|-----------2-2---------|-0---------3-3------3---|--------|

  D7 C7 G6  B7 Em      B7  Em      B7  D7 C7 G6  B7 Em      B7  Em      B7
|-0--0--0-|-0--0-------0-|-0-------0-|-0--0--0-|-0--0-------0-|-0-------0-|
|-3--1--0-|-0--0-------0-|-0-------0-|-3--1--0-|-0--0-------0-|-0-------0-|
|-5--3--4-|-2--0-------2-|-0-------2-|-5--3--4-|-2--0-------2-|-0-------2-|
|-4--2--2-|-1--2-------1-|-2-------1-|-4--2--2-|-1--2-------1-|-2-------1-|
|-5--3--x-|-x--2-------x-|-2-------x-|-5--3--x-|-x--2-------x-|-2-------x-|
|-------3-|-2--0-0-1-2-2-|-0-0-1-2-2-|-------3-|-2--0-0-1-2-2-|-0-0-1-2-2-|

  D7   C7   B7  Am6(9)G6  B7/F#  Em   Am6(9) G6   B7/F#  Em 
|-0----0----0-|-0~~---0~~-0~~--|-0~~--0~~----0~~--0~~--|---0-0-0-------|
|-3----1----0-|-0~~---0~~-0~~--|-0~~--0~~----0~~--0~~--|---0-0-0-------|
|-5----3----2-|-5~~---4~~-2~~--|-0~~--5~~----4~~--2~~--|---0-0-0-0-0-0-|
|-4----2----1-|-4~~---2~~-1~~--|-2~~--4~~----2~~--1~~--|-2-2-1-0-0-0-0-|
|-5----3----2-|-x~~---x~~-x~~--|-2~~--x~~----x~~--x~~--|-2-------2-1-0-|
|-------------|-5~~---3~~-2~~--|-0~~--5~~----3~~--2~~--|-0-------------|
  
  Am6(9)            G6                B7/F#
|-0-0-0-0-0-0-0-0-|-0-0-0-0-0-0-0-0-|-0-0-0-0-0-0-0-0-|
|-0-0-0-0-0-0-0-0-|-0-0-0-0-0-0-0-0-|-0-0-0-0-0-0-0-0-|
|-5-5-5-5-5-5-5-5-|-4-4-4-4-4-4-4-4-|-2-2-2-2-2-2-2-2-|
|-4-4-4-4-4-4-4-4-|-2-2-2-2-2-2-2-2-|-1-1-1-1-1-1-1-1-|
|-x-x-x-x-x-x-x-x-|-x-x-x-x-x-x-x-x-|-x-x-x-x-x-x-x-x-|
|-5-5-5-5-5-5-5-5-|-3-3-3-3-3-3-3-3-|-2-2-2-2-2-2-2-2-|

 Em              Am6(9)            G6                B7/F#
|---0-0-0-------|-0-0-0-0-0-0-0-0-|-0-0-0-0-0-0-0-0-|-0-0-0-0-0-0-0-0-|
|---0-0-0-------|-0-0-0-0-0-0-0-0-|-0-0-0-0-0-0-0-0-|-0-0-0-0-0-0-0-0-|
|---0-0-0-0-0-0-|-5-5-5-5-5-5-5-5-|-4-4-4-4-4-4-4-4-|-2-2-2-2-2-2-2-2-|
|-2-2-1-0-0-0-0-|-4-4-4-4-4-4-4-4-|-2-2-2-2-2-2-2-2-|-1-1-1-1-1-1-1-1-|
|-2-------2-1-0-|-x-x-x-x-x-x-x-x-|-x-x-x-x-x-x-x-x-|-x-x-x-x-x-x-x-x-|
|-0-------------|-5-5-5-5-5-5-5-5-|-3-3-3-3-3-3-3-3-|-2-2-2-2-2-2-2-2-|

 Em              Am6(9)            G6                B7/F#
|---0-0-0-------|-0-0-0-0-0-0-0-0-|-0-0-0-0-0-0-0-0-|-0-0-0-0-0-0-0-0-|
|---0-0-0-------|-0-0-0-0-0-0-0-0-|-0-0-0-0-0-0-0-0-|-0-0-0-0-0-0-0-0-|
|---0-0-0-0-0-0-|-5-5-5-5-5-5-5-5-|-4-4-4-4-4-4-4-4-|-2-2-2-2-2-2-2-2-|
|-2-2-1-0-0-0-0-|-4-4-4-4-4-4-4-4-|-2-2-2-2-2-2-2-2-|-1-1-1-1-1-1-1-1-|
|-2-------2-1-0-|-x-x-x-x-x-x-x-x-|-x-x-x-x-x-x-x-x-|-x-x-x-x-x-x-x-x-|
|-0-------------|-5-5-5-5-5-5-5-5-|-3-3-3-3-3-3-3-3-|-2-2-2-2-2-2-2-2-|

 Em              Am6(9)            G6                B7/F#
|---0-0-0-------|-0-0-0-0-0-0-0-0-|-0-0-0-0-0-0-0-0-|-0-0-0-0-0-0-0-0-|
|---0-0-0-------|-0-0-0-0-0-0-0-0-|-0-0-0-0-0-0-0-0-|-0-0-0-0-0-0-0-0-|
|---0-0-0-0-0-0-|-5-5-5-5-5-5-5-5-|-4-4-4-4-4-4-4-4-|-2-2-2-2-2-2-2-2-|
|-2-2-1-0-0-0-0-|-4-4-4-4-4-4-4-4-|-2-2-2-2-2-2-2-2-|-1-1-1-1-1-1-1-1-|
|-2-------2-1-0-|-x-x-x-x-x-x-x-x-|-x-x-x-x-x-x-x-x-|-x-x-x-x-x-x-x-x-|
|-0-------------|-5-5-5-5-5-5-5-5-|-3-3-3-3-3-3-3-3-|-2-2-2-2-2-2-2-2-| 

  D7 C7 G6 B7  Em B7 Em B7  D7 C7 G6 B7  Em      B7  Em      B7
|-------0--0-|-0--0--0--0-|-0--0--0--0-|-0-------0-|-0-------0-|
|-3--1--0--0-|-0--0--0--0-|-3--1--0--0-|-0-------0-|-0-------0-|
|-5--3--4--2-|-0--2--0--2-|-5--3--4--2-|-0-------0-|-0-------0-|
|-4--2--2--1-|-2--1--2--1-|-4--2--2--1-|-2-------1-|-2-------1-|
|-5--3--x--x-|-2--x--2--x-|-5--3--x--x-|-2-------x-|-2-------x-|
|-------3--2-|-0--2--0--2-|-------3--2-|-0-0-1-2-2-|-0-0-1-2-2-|
  D7  C7 B7
|-0---0-------0-|
|-3---1------0--|
|-5---3-----2---|
|-4---2----1----|
|-5---3---2-----|
|---------------|
Tap to rate this tab
# A B C D E F G H I J K L M N O P Q R S T U V W X Y Z