Song name
# A B C D E F G H I J K L M N O P Q R S T U V W X Y Z

Mathieu Chedid - Sous Ta Peau tab

Le tout, tout le long de la chanson.


e|-5-(x)-(x)/-3-(x)-(x)-0-0-X-(x)-(x)-0-(x)-(x)-0--(x)-(x)-----X-|
B|-5-(x)-(x)/-3-(x)-(x)-1-1-X-(x)-(x)-1-(x)-(x)-1--(x)-(x)-0-0-X-|
G|-5-(x)-(x)/-3-(x)-(x)-2-2-X-(x)-(x)-2-(x)-(x)-2--(x)-(x)-0-0-X-|
D|-0----------0---------2-2-----------3---------3----------2-2---|
A|-0----------0---------0-0-----------3---------3----------2-2---|
E|---------------------------------------------------------------|


e|-(x)-(x)-0-(x)-(x)-0-(x)-(x)-0-0-X-(x)-(x)-0-(x)-(x)-0-(x)-(x)-|
B|-(x)-(x)-1-(x)-(x)-1-(x)-(x)-1-1-X-(x)-(x)-1-(x)-(x)-1-(x)-(x)-|
G|-(x)-(x)-2-(x)-(x)-2-(x)-(x)-0-0-X-(x)-(x)-0-(x)-(x)-0-(x)-(x)-|
D|---------3---------3---------2-2-----------2---------2---------|
A|---------3---------3---------3-3-----------3---------3---------|
E|-----------------------------3-3-----------3---------3---------|


e|-0---0-X-(x)-(x)-|
B|-1---1-X-(x)-(x)-|
G|-0---0-X-(x)-(x)-|
D|-0/2-2-----------|
A|-3---3-----------|
E|-3---3-----------|
Tap to rate this tab
# A B C D E F G H I J K L M N O P Q R S T U V W X Y Z