Song name
# A B C D E F G H I J K L M N O P Q R S T U V W X Y Z

Mathieu Chedid - Qui De Nous Deux tab

-------------------------------------------------------------------------------
			     Qui de nous deux? - M
-------------------------------------------------------------------------------
Tabbed by:HiPpIe dUdE
Email:besilix@hotmail.com

Tuning:Standard

the chords r practically played da same throughout da 
song except when he plays it on da piano,but u can keep on playin it on da guitar.

Intro

e|---3----1--3s6|-0-1--3-3---1--3-3|-3--1--3s8-6|-0-1--3-3---1--3-3--------|
B|-------------------------------------------------------------------------|
G|-------------------------------------------------------------------------|
D|-------------------------------------------------------------------------|
A|-------------------------------------------------------------------------|
E|-------------------------------------------------------------------------|


Verse/Chorus (play da intro with another guitar during da chorus)

    Cm        G5         F         Cm
e|---3---------3---------1----------8--------------------------------------|
B|---4---------3---------1----------8--------------------------------------|
G|---5---------3---------2----------8--------------------------------------|
D|---5---------5---------3----------9--------------------------------------|
A|---3---------5---------3----------9--------------------------------------|
E|---3---------3---------1----------8--------------------------------------|
Tap to rate this tab
 
# A B C D E F G H I J K L M N O P Q R S T U V W X Y Z