Song name
# A B C D E F G H I J K L M N O P Q R S T U V W X Y Z

Mathieu Edward - Mon Combat tab

Help us improve GuitareTab! Take a short survey!
-------------------------------------------------------------------------
MON COMBAT  Mathieu Edward
-------------------------------------------------------------------------
Tabbed by: Kengus

Official website: http://mathieuedward.skyrock.com/

Mathieu Edward's song Mon Combat from his 2008 album Entre Toi Et Moi.
I think there are many guitars playing in the song, but this is tabbed
just for one. Enjoy.

Standard tuning

INTRO (repeat x2)
  Em               Cadd9           G            Dsus2     D
e|-3-----0h2-0------------------------------------0-------2--------------|
B|------------------------3--------------0-1-3------3-----3--------------|
G|-----0-------0--------0-----0--------0-0-0-0--------2---2--------------|
D|---2----------------2-----2---2----0----------0---------0--------------|
A|------------------3----------------------------------------------------|
E|-0-------------------------------3-------------------------------------|

VERSE + PRE-CHORUS
  Em               Cadd9           G            Dsus2     D
e|-3-----0h2-0------------------------------------0-------2--|
B|------------------------3--------------0-1-3------3-----3--|
G|-----0-------0--------0-----0--------0-0-0-0--------2---2--| x3
D|---2----------------2-----2---2----0----------0---------0--|
A|------------------3----------------------------------------|
E|-0-------------------------------3-------------------------|
  Em               Cmaj7           G            Dsus2        D  Am7 Bm7
e|-3-----0h2-5------------------------------------0--------0h2--33x-55x--|
B|------------------------0--------------0-1-3------3----3------11x-33x--|
G|-----0-------0--------0-----0--------0-0-0-0--------2---------00x-22x--|
D|---2----------------2-----2---2----0----------0--------0------22x-44x--|
A|------------------3-------------------------------------------00x-22x--|
E|-0-------------------------------3-------------------------------------|
   C  Dadd4add9     D  Am7 Bm7 C   Dadd4add9
e|-00x-0----------0h2--33x-55x-00x-0---------|
B|-11x-3--------3------11x-33x-11x-3---------|
G|-00x-0---------------00x-22x-00x-0---------|
D|-22x-4--------0------22x-44x-22x-4---------|
A|-33x-5---------------00x-22x-33x-5---------|
E|-------------------------------------------|

CHORUS
  Em                Cadd9          G            Dsus2     D
e|-3-----0h2-0------------------------------------0-------2--|
B|------------------------3--------------0-1-3------3-----3--|
G|-----0-------0--------0-----0--------0-0-0-0--------2---2--| x3
D|---2----------------2-----2---2----0----------0---------0--|
A|------------------3----------------------------------------|
E|-0-------------------------------3-------------------------|
  Em                Cadd9          G            Dsus2     D
e|-3-----0h2-5------------------------------------0-------2--|
B|------------------------0--------------0-1-3------3-----3--|
G|-----0-------0--------0-----0--------0-0-0-0--------2---2--|
D|---2----------------2-----2---2----0----------0---------0--|
A|------------------3----------------------------------------|
E|-0-------------------------------3-------------------------|

BRIDGE
  Am7       Bm7      Cmaj7  Bm7    Emadd9     Am7      Bm7     Cmaj7
e|-----------------------------------------------------------------------|
B|-------1--------3--------0------3-----------------1--------3--------0--|
G|-----0--------2--------0------2---------0-------0--------2--------0----|
D|---2--------4--------2------4---------4-------2--------4--------2------|
A|-0--------2--------3------2---------2-------0--------2--------3--------|
E|----------------------------------0------------------------------------|
  Bm7     Emadd9     Am7      Bm7      C        Bm7      Am7      Bm7
e|-----------------------------------------------------------------------|
B|-------3-----------------1--------3--------1--------3--------1--------3|
G|-----2---------0-------0--------2--------0--------2--------0--------3--|
D|---4---------4-------2--------4--------2--------4--------2--------4----|
A|-2---------2-------0--------2--------3--------2--------0--------2------|
E|---------0-------------------------------------------------------------|
   C        Dadd4add9
e|---------------------|
B|-------1--------3----|
G|-----0--------0------|
D|---2--------4--------|
A|-3--------5----------|
E|---------------------|

WITH LYRICS:

VERSE1
Em           Cadd9
    Qui aurait cru qu'dix ans plus tard
      G                       Dsus2               D
Te voila mre, me voila pre, avec un tot et la bague au doigt
Em              Cadd9
    Je n'savais pas s'que j'voulais faire
      G                    Dsus2              D
Mes decisions et mes ides, mon souvent empchs d'y croire
Em                     Cadd9
    Les parents n'on pas toujours raison
      G                         Dsus2                    D
Et ne save pas ce que l'on vit, va bien plus loin que la tradition
Em                    Cmaj7
    C'est comme sa et y'a rien a faire
     G                 Dsus2          D
Et j'le referais si c'tait a refaire

PRE-CHORUS
Am7                  Bm7  
    Ce qu'ils en pensent, ce qu'ils en disent
   C                       Dadd4add9
Ne m'effraie plus, j'ai assez vue
                   Am7
J'prfre lacher prise
        Bm7
Sans regret, sans rancune
    C                  Dadd4add9
Y'a bien longtemps que je l'assume

CHORUS
                Em                 Cadd9
Ce qu'on nous a dit, et ce qu'on appris
           G                        Dsus2
Et  des annes lumires de se que l'on vit
   D        Em              Cadd9
Personne ne pouras nous dire, ce que l'on doit faire
    G                       Dsus2
Nos sentiment sont notre seuls repres
        D   Em                 Cadd9                G              Dsus2
Tant pis certain sont du, si d'autres avait vu ma vie tourn autrement
           D       Em             Cadd9
Mais je m'ferais jamais  l'ide, de te perdre un jour
   G                         Dsus2     D
Tu est la raison pour laquel j'me bat, jour aprs jour

VERSE2 (play as before)
Les regard des autres ne m'effraient plus
Mais quand j'y pense, parfois j'ai honte
Quand je me dit que l'on aurait pu
Couper les ponds et mettre un terme
A cette histoire que dans deux mondes, m'audissaient depuis le dbut
Pour toi je veux tre un meilleur homme
Et faire de notre diffrence, notre force face a l'adversit
Je te jure que je n'laisserais personne
(Plus jamais) Jamais nous spars

PRE-CHORUS (play as before)
Ce qu'ils en pensent, Ce qu'ils en disent
Ne m'effraie plus
J'prfre lacher prise
Sans regrets, sans rancunes
Bien longtemps que j'assume

CHORUS (play as before, goes straight into bridge)

BRIDGE
Am7       Bm7                         Cmaj7  Bm7 
    Je ne compte plus nos annes de combats
Emadd9                           Am7
Pour notre couple, pour notre histoire
     Bm7                           Cmaj7   Bm7
J'ai bien en tte se qui accepte mon choix
Emadd9              Am7
Il sont bien peu je crois
   Bm7                              C
Je rve peut-tre mais je garde l'espoir
      Bm7                   Am7
Qu'un jour viendra o il sauront
                          Bm7             C   Dadd4add9
Faire le geste, ne plus retourn leurs vestes

CHORUS (play as before)

INTERLUDE (one guitar strums chords)
Em7(022033) Cadd2(x32033) G*(320033) D (xx0232)  [repeat x2]                     

OUTRO (one guitar strums like above, another picks like in verse)
Peut importe nos diffrences, ma dcision est prise
Mme  l'encontre de nos parents, sur notre amour, je mise
Peut importe nos diffrences, ma dcision est prise
Mme malencontre de nos parents, sur notre amour, je mise

========================================================================
Comment, rate, appreciate!
Related for Mon Combat tab