Song name
# A B C D E F G H I J K L M N O P Q R S T U V W X Y Z

Maths Class - Emporio Laser tab

Maths Class
Emporio Laser
Maths-class.co.uk

Tuning: EADGBe

Intro

e|--------------------------------------------------------------------------|
B|--------------------------------------------------------------------------|
G|--------------------------------------------------------------------------|
D|--------------------------------------------------------------------------|
A|--------------------------------------------------------------------------|
E|-0--12------12-12-12-0h12h15----------------------------------------------|
  (strum)

Verse

e|--------------------------------------------------------------------------|
B|---------------------------17-15--15--------------------------------------|
G|-16-----14-16-16-----14-16------16--14-16-14---14-------------------------|
D|---14-17--------14-17------------------------17--17-----------------------|
A|--------------------------------------------------------------------------|
E|--------------------------------------------------------------------------|

e|--------------------------------------------------------------------------|
B|---------------------------17-15--15--------------15h17-------------------|
G|-16-----14-16-16-----14-16------16--14-16-14-16-14------------------------|
D|---14-17--------14-17-----------------------------------------------------|
A|--------------------------------------------------------------------------|
E|--------------------------------------------------------------------------|

Bridge

Just play the first bit of the verse.

Break

e|--------------------------------------------------------------------------|
B|--------------------------------------------------------------------------|
G|-16-16-16-16-16-16/4------------------------------------------------------|
D|----------------------2--2--2--2------------------------------------------|
A|----------------------2--2--2--2------------------------------------------|
E|----------------------0--0--0--0--0-0-0-0--0-0-0-0-0h12h15----------------|

e|------------------5p3p0------------------------------------------0h7h10---|
B|--------------------------------------------------------------------------|
G|--------------------------------------------------------------------------|
D|-2-2-2-2--2-2-2-2-------2-2-2-2--2-2-2-2---------2-2-2-2--2-2-2-2---------|
A|-2-2-2-2--2-2-2-2-------2-2-2-2--2-2-2-2---------2-2-2-2--2-2-2-2---------|
E|-0-0-0-0--0-0-0-0-------0-0-0-0--0-0-0-0-0h12h15-0-0-0-0--0-0-0-0---------|

Outro

e|--------------------------------------------------------------------------|
B|--------------------------------------------------------------------------|
G|--------------------------------------------------------------------------|
D|--------------------------------------------------------------------------|
A|--------------------------------------------------------------------------|
E|-0h12h15-0h12h15-0h12h15-0h12h15-0h12h15-0h12h15-0h12h15-0h12h15-0h12h15--|

End.

| p pull off
| /  slide up
| h  hammer-on

============================================================================
Tap to rate this tab
# A B C D E F G H I J K L M N O P Q R S T U V W X Y Z