Song name
# A B C D E F G H I J K L M N O P Q R S T U V W X Y Z

Matia Bazar - Esta Tarde Que Tarde chords

Highlighted       Show chord diagrams
Acordes:
Dm7:x57565
E7#9:076780
Am9:x05557
G:355433
Cmaj7:x35453
B7sus4:7x7750
E7:076750
Em7-Ebm7:x79787-68676



e|-7----------------5-------------------0-------|
B|-5--------------6-------------------8---------|
G|-5------------5-------------------7-----------|
D|-5----------7--------------7----6-------------|
A|-0--------5-------------------7---------------|
E|----------------------------------------------|
       esta tarde        que taaarde

e|--------------------------5----------|
B|-------------5-----------------------|
G|-----------5-------------------------|
D|---------5---------------------------|
A|--7----7-----------------------------|
E|-----5-------------------------------|
    la vida nos espera a los 2

e|-----------------5----------------------0-------|
B|---------------6----------------------8---------|
G|-------------5----------------------7-----------|
D|-----------7------------------7---6-------------|
A|---------5----------------------7---------------|
E|------------------------------------------------|
        de noche tu cuerpo y mi cueeerpo

e|-------------------------------------|
B|-------------5-----------------------|
G|-----------5-------------------------|
D|---------5---------------------------|
A|-7-----7-----------------------------|
E|-----5-------------------------------|
  la magica sorpresa de amor


         Dm7                  G
luego la brisa del mar en la cara 
             Cmaj7              Am9
mientras la luna nos parece mas clara, 
         Dm7            G
toda una vida en un instante 
 Cmaj7                      B7sus4        E7
nuestro eterno juego medio amigos medio amantes, 

      Dm7       E7#9
esta tarde que tarde 
   Am9
la vida nos espera a los dos 
    Dm7                  E7#9
de noche tu cuerpo y mi cuerpo 
   Am9
la magica sorpresa de amor, 
         Dm7           G
mira la luna que se refleja 
        Cmaj7                    Am9
sobre nosotros cuando formamos pareja 
         Dm7                    G
mira las olas que acarician la arena 
 Cmaj7                 B7sus4     E7
dandonos una sincera y pura enhorabuena, 

  Dm7   G   Dm7          G
nanaaanana..naranananaynana 
    Cmaj7
narana...nanana 
    B7sus4
narana...nanana
     Cmaj7        Em7-Ebm7
nana naranana nananaaaa 


      Dm7       E7#9
esta tarde que tarde 
   Am9
la vida nos espera a los dos 
    Dm7                  E7#9
de noche tu cuerpo y mi cuerpo 
   Am9
la magica sorpresa de amor, 


         Dm7                G
sonrie siempre por nuestro juego 
              Cmaj7                     Am9
siempre es en broma pero siempre es en serio, 
           Dm7             G
nuestra sonrisa como un tesoro 
Cmaj7                        B7sus4       E7
flota entre nosotros como un sol color de oro 

     Dm7        E7#9  Am9
esta tarde que tarde 
    Dm7                  E7#9  Am9
de noche tu cuerpo y mi cuerpo 

         Dm7                G
hacen balance de los dias pasados 
             Cmaj7                 Am9
desde un principio eternamente abrazados 
            Dm7                  G
aunque no estas siempre viva y presente 
Cmaj7                      B7sus4     E7
antes y despues te has adueñado de mi mente, 


  Dm7   G   Dm7          G
nanaaanana..naranananaynana 
    Cmaj7
narana...nanana 
    B7sus4
narana...nanana
     Cmaj7        Em7-Ebm7
nana naranana nananaaaa 


      Dm7       E7#9
esta tarde que tarde 
   Am9
la vida nos espera a los dos 
    Dm7                  E7#9
de noche tu cuerpo y mi cuerpo 
   Am9
la magica sorpresa de amor....... 



 
 

Matia Bazar's official site:http://www.matiabazar.com/
Tap to rate this tab
# A B C D E F G H I J K L M N O P Q R S T U V W X Y Z