Guitaretab - guitar tabs
Song name
# A B C D E F G H I J K L M N O P Q R S T U V W X Y Z

Matisyahu - Heights tab

Matisyahu - Heights

standard tuning


Intro
e|----------------------------------------|         |--------|
B|----------------------------------------|         |--------|
G|----------------------------------------|        |---------|
D|--10-10-10-10-10-10-10-10-10-10--8--10--| x3  |--10--------|
A|--10-10-10-10-10-10-10-10-10-10--8--10--|        |--10-----|
E|--8--8--8--8--8--8--8--8--8--8---8--8---|        |--8------|

Verse

Then it goes to off beat chords...


Em shape bar chords           8th 8th 10th 10th 11th 11th 13th 13th
if you know what i mean... Cm  Cm  Dm   Dm   Ebm  Ebm  Fm   Fm

[ Tab from: http://www.guitaretab.com/m/matisyahu/104751.html ]
I like to play them more as 5ths (power chords) because it suits my style of play better...


Chorus

(the bracketed notes are sort of fast and like little fill ins...)

#~ = vibrato

e|-----------------------------------------------------------------------------------|
B|-----------------------------------------------------------------------------------|
G|-----------------------------------------------------------------------------------|
D|--10-10-(10)-8-8-----------------------(8)-10-10-(10)-8-8--------------------------| x2
A|-----------------10~--8-8-(8)----8-10---------------------10~-----8-8-(8)-10-8-----|
E|------------------------------11-------------------------------11--------------11--|


Please email me with ideas or feedback

Email: lord-kc@hotmail.com

10rd K2
Related for Heights tab
Advertisement will be closed in 10 seconds