Song name
# A B C D E F G H I J K L M N O P Q R S T U V W X Y Z

Matisyahu - Sunshine tab

matisyahu

sunshine



   verso

e  -7- 8 - 5 -10--7 8-  2 3-----|
b  -8- 10 -7 -12--8 10 -3 5-----|
g  -9 -9  -7 -12--9 9---- 4-----|
d ------------------------------|
a ------------------------------|
E ------------------------------|


     coro

E 7-3-5------10---------------------|
B 8-5-7------12---------------------|
G 9-5-7---x2-12---------------------|
D 9-5-7------12---------------------|
A 7-3-5------10---------------------|
E-----------------------------------|

 puente

e-3--7-3-5--|
b-5--8-5-7--|
g-5--9-5-7--|
d-5--9-5-7--|
a-3--7-3-5--|
E-----------|


esta es  mi primera tablatura espero les sirva de ayuda esas son las notas y disculpen 
que sea tan sencilla ...
saludos IRO  desde venezuelaa XD
Tap to rate this tab
# A B C D E F G H I J K L M N O P Q R S T U V W X Y Z