Song name
# A B C D E F G H I J K L M N O P Q R S T U V W X Y Z

Matisyahu - One Day tab

Song: One Day (Live Version)
Artist: Matisyahu
Album: Live at Stubb's Vol. 1
Tabbed by SPENCER LARSEN
**check out some of my songs on my profile**


Intro played through 2x
e----------13----------13--10------13--11-------------I
B--11---11----13--------------11-----------11---------I
G-----10---------14--------------12-----------12------I
D--------------------15--------------------------13---I
A-----------------------------------------------------I
E-----------------------------------------------------I

Verse played through 4x
e----------13----------13--10------13--11-------------I
B--11---11----13--------------11-----------11---------I
G-----10---------14--------------12-----------12------I
D--------------------15--------------------------13---I
A-----------------------------------------------------I
E-----------------------------------------------------I

Chorus played through 4x (with drive)
e----------13----------13--10------13--11-------------I
B--11---11----13--------------11-----------11---------I
G-----10---------14--------------12-----------12------I
D--------------------15--------------------------13---I
A-----------------------------------------------------I
E-----------------------------------------------------I

Verse
e--6--6--6--6--1--1--1--1--3--3--3--3--6--6--6--6-I
B--6--6--6--6--1--1--1--1--3--3--3--3--8--8--8--8-I
G--7--7--7--7--2--2--2--2--3--3--3--3--8--8--8--8-I
D--8--8--8--8--3--3--3--3--5--5--5--5--8--8--8--8-I
A-------------------------------------------------I
E-------------------------------------------------I

e---------1-----1-----3-----3-----------13--11---------I
B---------1-----1-----3-----3--------11--------11------I
G---------2-----2-----3-----3-----12-------------12----I
D---------3-----3-----5-----5--13-------------------13-I
A------------------------------------------------------I
E------------------------------------------------------I

e--6--6--6--6--1--1--1--1--3--3--3--3--6--6--6--6-I
B--6--6--6--6--1--1--1--1--3--3--3--3--8--8--8--8-I
G--7--7--7--7--2--2--2--2--3--3--3--3--8--8--8--8-I
D--8--8--8--8--3--3--3--3--5--5--5--5--8--8--8--8-I
A-------------------------------------------------I
E-------------------------------------------------I

e--6--6--6--6--1--1--1--1--3--3--3--3--6\-------I
B--6--6--6--6--1--1--1--1--3--3--3--3--8\-------I
G--7--7--7--7--2--2--2--2--3--3--3--3--8\-------I
D--8--8--8--8--3--3--3--3--5--5--5--5--8\-------I
A-----------------------------------------------I
E-----------------------------------------------I

Chorus 6x (with drive)
e----------13----------13--10------13--11-------------I
B--11---11----13--------------11-----------11---------I
G-----10---------14--------------12-----------12------I
D--------------------15--------------------------13---I
A-----------------------------------------------------I
E-----------------------------------------------------I

Instrumental (2:12-5:28)
[I won’t tab out the solo. Just improvise with an EBOW]

Chorus/Outro (5:28)
6x with drive
4 or 5x without drive

e----------13----------13--10------13--11-------------I
B--11---11----13--------------11-----------11---------I
G-----10---------14--------------12-----------12------I
D--------------------15--------------------------13---I
A-----------------------------------------------------I
E-----------------------------------------------------I
Tap to rate this tab
# A B C D E F G H I J K L M N O P Q R S T U V W X Y Z