Song name
# A B C D E F G H I J K L M N O P Q R S T U V W X Y Z

Matisyahu - Sunshine tab

-------------------------------------------------------------------------------
                             Sunshine (acoustic) - Matisyahu
-------------------------------------------------------------------------------
Tabbed by: Oli B

Tuning: Standard eBGDAE

Verse:

Keep moving on to the first rays of dawn...
                                                               
e|7-7-7-8--8--8--8--8--5-5-5-10--10--10--10--10----------|     
B|8-8-8-10-10-10-10-10-7-7-7-12--12--12--12--12----------|
G|9-9-9-9--9--9--9--9--7-7-7-12--12--12--12--12----------|
D|x-x-x-x--x--x--x--x--x-x-x-x---x---x---x---x-----------|
A|x-x-x-x--x--x--x--x--x-x-x-x---x---x---x---x-----------|
E|x-x-x-x--x--x--x--x--x-x-x-x---x---x---x---x-----------|

Keeping till the night time all along...

e|7-7-7-8--8--8--8--8--2-2-2-3-3-3-3-3-------------------|
B|8-8-8-10-10-10-10-10-3-3-3-5-5-5-5-5-------------------|
G|9-9-9-9--9--9--9--9--x-x-x-4-4-4-4-4-------------------|
D|x-x-x-x--x--x--x--x--x-x-x-x-x-x-x-x-------------------|
A|x-x-x-x--x--x--x--x--x-x-x-x-x-x-x-x-------------------|
E|x-x-x-x--x--x--x--x--x-x-x-x-x-x-x-x-------------------|

Pre-Chorus:

It's time for a champion...

e|7-----7------8------8-------5-----5------10-------10-------------|
B|--8------8-----10------10-----7------7------12--------12---------|
G|----9------9------9-------9-----7------7-------12--------12------|
D|-----------------------------------------------------------------|
A|-----------------------------------------------------------------|
E|-----------------------------------------------------------------|

Mend the heart from the sea and the sand...

e|7-----7------8------8-------5-----5------3-----3-----------------|
B|--8------8-----10------10-----7------7-----5------5--------------|
G|----9------9------9-------9-----7------7-----4------4------------|
D|-----------------------------------------------------------------|
A|-----------------------------------------------------------------|
E|-----------------------------------------------------------------|

Chorus:

Reach for the sky...

e-7----3----5----7----|
B-8----5----7----8----|
G-9----5----7----9----|
D-9----5----7----9----|
A-7----3----5----7----|
E-x----x----x----x----|

Forever by my side...

e-7----3----5----10----|
B-8----5----7----12----|
G-9----5----7----12----|
D-9----5----7----12----|
A-7----3----5----10----|
E-x----x----x----x-----|

Bridge:

It's the way of the world... x3

e-3-3-3-3-3-3-3-3-7-7-7-7-7-7-7-7---|
b-5-5-5-5-5-5-5-5-8-8-8-8-8-8-8-8---|
g-5-5-5-5-5-5-5-5-9-9-9-9-9-9-9-9---|
d-5-5-5-5-5-5-5-5-9-9-9-9-9-9-9-9---|
a-3-3-3-3-3-3-3-3-7-7-7-7-7-7-7-7---|
E-x-x-x-x-x-x-x-x-x-x-x-x-x-x-x-x---|

Come along now take my hand... x1


e-3-3-3-3-3-3-3-3-5-5-5-5-5-5-5-5---|
b-5-5-5-5-5-5-5-5-7-7-7-7-7-7-7-7---|
g-5-5-5-5-5-5-5-5-7-7-7-7-7-7-7-7---|
d-5-5-5-5-5-5-5-5-7-7-7-7-7-7-7-7---|
a-3-3-3-3-3-3-3-3-5-5-5-5-5-5-5-5---|
E-x-x-x-x-x-x-x-x-x-x-x-x-x-x-x-x---|


************************************

| /   slide up
| \   slide down
| h   hammer-on
| p   pull-off
| ~   vibrato
| +   harmonic
| x   Mute note
| b   Bend
| pb  Pre-bend
| br  Bend release
| pbr Pre-bend release
| brb Bend release bend

************************************
Tap to rate this tab
 
# A B C D E F G H I J K L M N O P Q R S T U V W X Y Z