Song name
# A B C D E F G H I J K L M N O P Q R S T U V W X Y Z

Matisyahu - Live Like A Warrior chords

Capo 3

Verse
----6----3----3----5----------------------------------------------------------------------------|
----3----4----3----6----------------------------------------------------------------------------|
----3----3----3----5----------------------------------------------------------------------------|
----3----5----5----3----------------------------------------------------------------------------|
----5----6----5----3----------------------------------------------------------------------------|
----6----x----3----3----------------------------------------------------------------------------|

Chorus:
----3----6----5----3--|
----4----3----6----3--|
----3----3----5----3--|
----5----3----3----5--|
----6----5----3----5--|
----x----6----3----3--|
Tap to rate this tab
# A B C D E F G H I J K L M N O P Q R S T U V W X Y Z