Matisyahu - One Day Acoustic tab

-------------------------------------------------------------------------------
                             ONE DAY (ACOUSTIC) - Matisyahu
-------------------------------------------------------------------------------
Tabbed by: Stewart Drake
E-mail:stewart.drake@yahoo.ca

This is the version that you see the guitarist play in the AOL sessions seen here 
(https://www.youtube.com/watch?v=AxyZ_3X4Ycw).
Try to figure out the strumming as best you can. But, I have put up/down strum markers.

Tuning: Standard EADGBe (Capo 3)

Intro  

   G          D              Em          C
   o o o   +  o o            o o o   +   o + o o  o +
e|-----3---3--3-3-0h3p0--------------------------------|
B|-----3---3--2-2------2-2---------------1-1-1-1--1-1--|
G|-----0---0--3-3-------3----------------0-0-0-0--0-0--|
D|-0-0-0---0-----------------2-2-2---2---2-2-2-2--2-2--|
A|-2-2-2---2-----------------2-2-2---2---3-3-3-3--3-3--|
E|-3-3-3---3-----------------0-0-0---0-----------------|
  pm--    

Continue strumming these chords with the lyrics and just jam around to get the right groove.

G D Em C

************************************
| pm  palm mute
| h   hammer-on
| p   pull-off
| o   down strum
| +   up strum
************************************
Tap to rate this tab
 
# A B C D E F G H I J K L M N O P Q R S T U V W X Y Z