Song name
# A B C D E F G H I J K L M N O P Q R S T U V W X Y Z

Matisyahu - Aish Tamid tab

Matisyahu
Aish Tamid



Verse:

     Bm      A
e----7---7---5---5---|
B----7---7---5---5---|
G----7---7---6---6---|
D--------------------|
A--------------------|
E--------------------|



Chorus:

     Bm              A
e----7---7---7---7---5---5---5---5---|
B----7---7---7---7---5---5---5---5---|
G----7---7---7---7---6---6---6---6---|
D------------------------------------|
A------------------------------------|
E------------------------------------|

Tap to rate this tab
 
# A B C D E F G H I J K L M N O P Q R S T U V W X Y Z