Guitaretab - guitar tabs
Song name
# A B C D E F G H I J K L M N O P Q R S T U V W X Y Z

Matisyahu - Chop Em Down Live tab

d = downstrum
u = upstrum


e |-------------------|-------------------|
B |-------------------|-------------------|
G |-------------------|-------------------|  2x
D |---------2--0-2----|---------2--0-2-5--|
A |---0--3---------2--|---0--3------------|
E |-------------------|-------------------|

     |<----u--->|       |<---u---->|
e |---5--5--5--5-----|---7--7--7--7-------|
B |---5--5--5--5-----|---7--7--7--7-------|
G |---5--5--5--5-----|---7--7--7--7-------|  4x
D |------------------|--------------------|
A |------------------|--------------------|
E |------------------|--------------------|

[ Tab from: ]
this is where is gets a little confusing

      d u  d u  d u  d u       d u  d u  d u  d u
e |---5-5--5-5--5-5--5-5---|---7-7--7-7--7-7--7-7---|
B |---5-5--5-5--5-5--5-5---|---7-7--7-7--7-7--7-7---|
G |---5-5--5-5--5-5--5-5---|---7-7--7-7--7-7--7-7---|
D |------------------------|------------------------|
A |------------------------|------------------------|
E |------------------------|------------------------|

hope its not TOO bad, and i know there is more but i 1.
can't figure it out, and 2. don't have the effect needed
for it o and of course its not that easy, stop being lazy
and figure out the timing for yourself
Related for Chop Em Down Live tab