Song name
# A B C D E F G H I J K L M N O P Q R S T U V W X Y Z

Matisyahu - Fire Of Heavenaltar Of Earth tab

Song: Fire of Heaven/Altar of Earth
Artist: Matisyahu
Album: Youth



Intro 

Bass Line:
G|-----------------------|
D|-----------------------|
A|-----------------------|
E|----7----5----3----5---|

Main Riff: "Fire Descends From Mount High, in a Shape of a Lion"
Palm Muted
e|-------------------------------------------------------------|
B|-------------------------------------------------------------|
G|-------------------------------------------------------------| X 4
D|---4-5-4-0-------4-0---------2-------------------------------|
A|------------2---------2-0------0---------5---------7-7-------|
E|------------------------------------3--3---3---5-5-----5-----|

Verse:
    Bm       A        G        A
e|--7--7-----5--5-----3--3-----5--5----------------------------|
B|--7--7-----5--5-----3--3-----5--5----------------------------|
G|--7--7-----6--6-----4--4-----6--6----------------------------|
D|--9--9-----7--7-----5--5-----7--7----------------------------|
A|--9--9-----7--7-----5--5-----7--7----------------------------|
E|--7--7-----5--5-----3--3-----5--5----------------------------|


Chorus: "Fire's Burning, Flames are Dancing"
    G        A        Bm          A 
e|--3-3-3-3--5-5-5-5--7-7-7-7-----9----5----9------------------|
B|--3-3-3-3--5-5-5-5--7-7-7-7-----10---5----10-----------------|
G|--4-4-4-4--6-6-6-6--7-7-7-7-----9----6----9------------------| 
D|-------------------------------------------------------------|
A|-------------------------------------------------------------|
E|-------------------------------------------------------------|


Tap to rate this tab
 
# A B C D E F G H I J K L M N O P Q R S T U V W X Y Z