Song name
# A B C D E F G H I J K L M N O P Q R S T U V W X Y Z

Matisyahu - Fire And Heights tab

This is just the intro part.


e|----------3--5---3---5--3---5--3-------3---------------------------------|
b|-7--5--3---------- 3------3------------3---------------------------------|
g|---------------------------------------3---------------------------------|
d|---------------------------------------5---------------------------------|
a|---------------------------------------5---------------------------------|
e|---------------------------------------5---------------------------------|

Then the reggae style strumming with theese chords come in...


e|------5----------------------8------------------------------|
b|------5----------------------6------------------------------|
g|------5-----------------------------------------------------|
d|------------------------------------------------------------|
a|------------------------------------------------------------|
e|------------------------------------------------------------|

Thats just what I heard... the solo part is what im still tryin to figure out. 
Tap to rate this tab
# A B C D E F G H I J K L M N O P Q R S T U V W X Y Z