Song name
# A B C D E F G H I J K L M N O P Q R S T U V W X Y Z

Matmatah - La Fille Du Chat Noir tab

Real Solo "La fille du chat noir" - Matmatah
Tab By Plioucha52

entirely made by ears, maybe with some mistakes

But it's sounds awesome!

Tunning: Standard
High Saturation w/ reverb & delay

E|--------------------------------------------------------|
A|---13b14---13^-13^-13^-13^--13-12-12-10-9h10p9-7~--10~--|
D|--------------------------------------------------------|
G|--------------------------------------------------------|
B|--------------------------------------------------------|
E|--------------------------------------------------------|


E|-14-14--17--14-17~---17-14-12---------------------------|
A|------------------------------14-19-19-19-17~~~~--------|
D|--------------------------------------------------------|
G|--------------------------------------------------------|
B|--------------------------------------------------------|
E|--------------------------------------------------------|


E|-------------------------------12-----------------------|
A|-12--12----12--14-15--15-14-12----14-----12---x3--------|
D|--------14----------------------------------------------|
G|--------------------------------------------------------|
B|--------------------------------------------------------|
E|--------------------------------------------------------|

E|-------------------------------12-----------------------|
A|-12--12----12--14-15--15-14-12----14-----19~~~~~~-------|
D|--------14----------------------------------------------|
G|--------------------------------------------------------|
B|--------------------------------------------------------|
E|--------------------------------------------------------|
Tap to rate this tab
# A B C D E F G H I J K L M N O P Q R S T U V W X Y Z