Song name
# A B C D E F G H I J K L M N O P Q R S T U V W X Y Z

Matt And Kim - Daylight tab

I was looking for a tab for this song and couldn't find it, so I've decided to make one 
to help others start.  Please feel free to complete it!

E||--9-7---7--9-7---9-9---------|
B||------10-------10------------|
G||-----------------------------|
D||-----------------------------|
A||-----------------------------|
E||-----------------------------|


E||--9-7---7--9-7---12-9--------|
B||------10-------10------------|
G||-----------------------------|
D||-----------------------------|
A||-----------------------------|
E||-----------------------------|


E||--9-7---7--9-7---7-----------|
B||------10-------10--10--------|
G||-----------------------------|
D||-----------------------------|   x2
A||-----------------------------|
E||-----------------------------|


Have fun!!
Tap to rate this tab
# A B C D E F G H I J K L M N O P Q R S T U V W X Y Z