Song name
# A B C D E F G H I J K L M N O P Q R S T U V W X Y Z

Matt And Kim - Good Ol Fashion Nightmare tab

e[--1---1----1--1---1-5-1]  repeat several times
b[---3-1--3-1----3-1-----]  
g[-----------------------] <--- LEAD
d[-----------------------]
a[-----------------------] 
e[-----------------------]

e[-----------------------]  repeat several times 
b[-----------------------]
g[-10-10--7-7--12-12--10-] <--- RHYTHM
d[-10-10--7-7--12-12--10-]
a[-8--8---5-5--10-10--8--]
e[-----------------------]

e[--------------------------]
b[-3-1----------------------]
g[-----2-0--0-2-0---0-2-----]
d[---------3------3-----0---]
a[------------------------3-]
e[--------------------------]

e[--------------------------]
b[-3-1----------------------]
g[-----2-0--0-2-0---0-2-----]
d[---------3------3-----3---]
a[--------------------------]
e[--------------------------]
Tap to rate this tab
 
# A B C D E F G H I J K L M N O P Q R S T U V W X Y Z