Song name
# A B C D E F G H I J K L M N O P Q R S T U V W X Y Z

Matt And Kim - Daylight tab

-------------------------------------------------------------------------------
			    Daylight - Matt and Kim
-------------------------------------------------------------------------------
Tabbed by: jdm345
Email: don't

Tuning: Drop D, capo on 1st fret.  You can move the capo up if you want, just whatever you think
sounds the best.  The rhythm for the bottom part is basically the same for the top 
part, but I think
I'm missing a bass note in there somewhere in between lines.  Just listen to the song and add
whatever you think should be added.

e|-------------------------------------------------------------------------------------|
B|----0-----------0----------0-0-------------------------------------------------------|
G|---------0-2--------2----0-----------------------------------------------------------|
D|-------------------------------------------------------------------------------------|
A|---3-----3-3----3---3----3-3-3-------------------------------------------------------|
E|-------------------------------------------------------------------------------------|

e|-------------------------------------------------------------------------------------|
B|----0-----------0----------3-0-------------------------------------------------------|
G|---------0-2--------2----0-----------------------------------------------------------|
D|-------------------------------------------------------------------------------------|
A|-------------------------------------------------------------------------------------|
E|---5-----5-5----5---5----5-5-5-------------------------------------------------------|

e|-------------------------------------------------------------------------------------|
B|----0-----------0--------------------------------------------------------------------|
G|---------0-2--------2----0-2-0-------------------------------------------------------|
D|-------------------------------------------------------------------------------------|
A|-------------------------------------------------------------------------------------|
E|---2-----2-2----2---2----2-2-2-------------------------------------------------------|

e|-------------------------------------------------------------------------------------|
B|----0-----------0--------------------------------------------------------------------|
G|---------0-2--------2----0-2-0-------------------------------------------------------|
D|-------------------------------------------------------------------------------------|
A|-------------------------------------------------------------------------------------|
E|---0-----0-0----0---0----0-0-0-------------------------------------------------------|
Tap to rate this tab
# A B C D E F G H I J K L M N O P Q R S T U V W X Y Z