Song name
# A B C D E F G H I J K L M N O P Q R S T U V W X Y Z

Matt And Kim - Daylight tab

This is song is pretty easy and repetitive

   D                        A
(piano)
e----------------------------------------------------|
B----------------------------------------------------|
G-----6--2h4-6--4--2--4--6-----6--2h4-6--4--2--9--6--|
D--0--0--0---0--0--0--0--0---------------------------|
A---------------------------0--0--0---0--0--0--0--0--|
E----------------------------------------------------|
(violin)
e---------------------10-----------------------------|
B---------------------------10-----------------------|
G----------------------------------------------------|
D----------------------------------------------------|
A----------------------------------------------------|
E----------------------------------------------------|

-----------------------------------------------------------------------------

(piano)
   F#m                      Esus4
e----------------------------------------------------|
B----------------------------------------------------|
G-----6--2h4-6--4--2--4--2-----6--2h4-6--4--2--4--2--|
D----------------------------------------------------|
A----------------------------------------------------|
E--2--2--2---2--2--2--2--2--0--0--0---0--0--0--0--0--|
(violin)
e----------------------------------------------------|
B---------------------7-----5------------------------|
G----------------------------------------------------|
D----------------------------------------------------|
A----------------------------------------------------|
E----------------------------------------------------|

simple.
Tap to rate this tab
# A B C D E F G H I J K L M N O P Q R S T U V W X Y Z