Song name
# A B C D E F G H I J K L M N O P Q R S T U V W X Y Z

Matt And Kim - Daylight tab

My friend learned this song by ear on piano, then I took that and converted it to
guitar. First tab, let me know what you think


e[ ---7----7-9-7----9-9---7----7-9-7----12-9---7----7-9-7----7------7----7-9-|
B[ -----10-------10---------10-------10----------10-------10---10-----10-----|
G[ -7-7-7--7-7-7-7--7-7------------------------------------------------------|
D[ ---------------------7-7-7--7-7-7-7--7--7---------------------------------|
A[ ------------------------------------------9-9-9--9-9-9-9--9-9--7-7-7--7-7-|
E[ --------------------------------------------------------------------------|

e -7----7---- ]
B ---10---10- ]
G ----------- ]Repeats throughout entire song
D ----------- ]
A -7-7--7-7-- ]
E ----------- ]
Tap to rate this tab
 
# A B C D E F G H I J K L M N O P Q R S T U V W X Y Z