Song name
# A B C D E F G H I J K L M N O P Q R S T U V W X Y Z

Matt And Kim - Good Ol Fashion Nightmare tab

----------------------------------------------------------------------------
	       Good Ol' Fassion Nightmare - Matt & Kim
----------------------------------------------------------------------------
Tabbed by: Zach Pepsin
Email: EaglesDudeNFL@aol.com

Tuning: Standard (EADGBe)



Lead Riff 1
e|---------------------------------------6-----------|
B|---7--4-----7--4-----7--------7--4--------7--4--6--|
G|---------6--------6-----------------6--------------|
D|---------------------------------------------------|
A|---------------------------------------------------|
E|---------------------------------------------------|

Lead Riff 2
e|---------------------------------------5h6-----------|
B|---7--4-----7--4-----7--------7--4----------7--4--6--|
G|---------6--------6-----------------6----------------|
D|-----------------------------------------------------|
A|-----------------------------------------------------|
E|-----------------------------------------------------|





Rythm Riff (i guess you could call this a bass riff?)
e|----------------------------------|
B|----------------------------------|
G|----------------------------------|
D|-------------------6--6-----------|
A|---9--9----6--6------------9--9---|
E|----------------------------------|






Violin Riff Part 1
e|------------------------------------------|
B|-16-14------------------------------------|
G|-------15-13----13-15-13----13-15---------|
D|-------------16----------16-------13------|
A|--------------------------------------16--|
E|------------------------------------------|

Violin Riff Part 2
e|------------------------------------------|
B|-16-14------------------------------------|
G|-------15-13----13-15-13----13-15---------|
D|-------------16----------16--------16-----|
A|------------------------------------------|
E|------------------------------------------|





Lyrics:

show me the sidestreets in your life 
train yards like boneyards sharpened knives 
sidewalks are unassuming fields 
concrete and cracks won't cut you deals, 
won't cut you deals, 
won't cut you 


lost teeth like white jewels of some kind 
petty theft for penny crimes, 
for penny crimes, 
and we yell 
ahh like a good old fashion nightmare 
ahhhh, ahh like a good old fashion nightmare 
ahhhh 


riding trains to the end of lines 
still we've got nothin but time 
the skyline looks brighter tonight 
lets go smash out every light 
your left foot in front of right, 
in front of right 
and we yell 
ahh like a good old fashion nightmare 
ahhhh, ahh like a good old fashion nightmare X3 
ahhhh
Tap to rate this tab
 
# A B C D E F G H I J K L M N O P Q R S T U V W X Y Z