Song name
# A B C D E F G H I J K L M N O P Q R S T U V W X Y Z

Matt And Kim - Its A Fact tab

MATT AND KIM FOREVER!!!!!!
___________________________________

Verse thing
e|--------------------------------->
B|-5---5---5---5---5---5---5---5--->
G|---5---5---5---5---4---4---4---4->
D|--------------------------------->
A|--------------------------------->
E|--------------------------------->

>---------------------------------|
>-5---5---5---5-------5-------5---|
>---2---2---2---2-2-4---2-4---2-4-|
>---------------------------------|      ... simple yeah?
>---------------------------------|
>---------------------------------|      do that... a few times



____________________________________

Chorus
e|------------------------------>
B|-5--5--5--5---5-5--5--5--5--5->
G|-5--5--5--5---5-4--4--4--4--4->
D|------------------------------>
A|------------------------------>
E|------------------------------>        you pretty much strum when he says
                                         the words "yes yes no no no..."
>--------------------------------|
>-5--5--5--5---5-----5-------5---|
>-2--2--2--2---2-2-4---2-4---2-4-|
>--------------------------------|
>--------------------------------|
>--------------------------------|



_____________________________________

Other Chorus
   C              B?
e|-0--0--0--0---0-0--0--0--0---0->
B|-1--1--1--1---1-0--0--0--0---0->
G|-0--0--0--0---0-0--0--0--0---0->
D|-2--2--2--2---2-2--2--2--2---2->        [? = I'm not entirely sure what
A|-3--3--3--3---3-3--3--3--3---3->        the actual chord is so i named
E|-0--0--0--0---0-0--0--0--0---3->        it that instead]

  A?
>-0--0--0--0---0-----------------|    |-0--0--0--0---0-|
>-0--0--0--0---0-----5-------5---|    |-0--0--0--0---0-|
>-2--2--2--2---2-2-4---2-4---2-4-| OR |-0--0--0--0---0-|
>-2--2--2--2---2-----------------|    |-2--2--2--2---2-|
>-0--0--0--0---0-----------------|    |-3--3--3--3---3-|
>-0--0--0--0---0-----------------|    |-0--0--0--0---0-|


Thanks for checking put my tab!!!!!!
Tap to rate this tab
 
# A B C D E F G H I J K L M N O P Q R S T U V W X Y Z