Song name
# A B C D E F G H I J K L M N O P Q R S T U V W X Y Z

Matt And Kim - Lightspeed tab

Lightspeed by Matt & Kim

This is just a fun acoustic version to play for the song. The song doesn't have any
guitar, so you can really play with it.

I think it works best when you mute between each chord to make a beat and then strum on 
the chorus.

I love this song, have fun!

CAPO 5

Chords used: Cadd9, G, Em, G

Intro:

Strumming pattern:


E---3-3---3-3--------3-3-3-3---3-3-3-3---|
B---3-3---3-3--------3-3-3-3---3-3-3-3---|
G---0-0---0-0  [x2]--0-0-0-0---0-0-0-0---|2x]
D---2-2---0-0--------2-2-2-2---0-0-0-0---|
A---3-3---2-2--------2-2-2-2---2-2-2-2---|
E---0-0---3-3--------0-0-0-0---3-3-3-3---|

Verse:

E---3-3---3-3------|
B---3-3---3-3------|
G---0-0---0-0--[20-|x]
D---2-2---0-0------|
A---3-3---2-2------|
E---0-0---3-3------|

Chorus:

For the first 2 chords, either alternate back and forth (2 strums) or play every chord 4 times.

E---3-3---3-3--------3-3-3-3---3-3-3-3---|
B---3-3---3-3--------3-3-3-3---3-3-3-3---|
G---0-0---0-0  [x2]--0-0-0-0---0-0-0-0---|2x]
D---2-2---0-0--------2-2-2-2---0-0-0-0---|
A---3-3---2-2--------2-2-2-2---2-2-2-2---|
E---0-0---3-3--------0-0-0-0---3-3-3-3---|

INTRO
VERSE
CHORUS
REPEAT

I play centerfield for the home team
You might not see me from the nosebleeds
I'll stand up on top of the dugout
And shout out and wave my arms and hold my tongue
�Cause it's not me

I wondered how fast is light speed
Would life itself stay or follow me?

And coach look at me now
Look at me now
And team look at me now
Look at me now
Look at me now

Foul ball deep in centerfield
Ninth inning, two outs
Look at me now
Look at me now
Look at me now
Look at me now

I wondered how fast is light speed
Would life itself stay or follow me?
If I caught that one
Would it be the same?
It's a good thing this is just a game
Tap to rate this tab
# A B C D E F G H I J K L M N O P Q R S T U V W X Y Z