Song name
# A B C D E F G H I J K L M N O P Q R S T U V W X Y Z

Matt Andersen - Leavin Blues tab

  Hey guys, this is my first tab so just bare with me here. I picked this up by ear,
there are no Matt Andersen tabs around. It isn't perfect, and I know that, but if you play
blues at all, you can freestyle it a bit. I'm just going to give you the basics and then 
can play with it and listen to the song to figure out the rest. You play the E
then the A progression, then the E, then B. Then it starts over. Do what you want with 
enjoy.


This is an E blues progression... E-A-B7

This is the E progression:
E----------------------------------------------------------------------------|
B----------------------------------------------------------------------------|
G----------------------------------------------------------------------------|
D---2-2------------------------------------2-2---------------2-2-------------|
A---2-2------2-2-------0-0-0-0-0-0-0-0-----2-2------2-2-4-2--2-2-----2-2-4-2-|
E---0-0--3-3------3-3--5-5-4-4-3-3-2-2--0------3-3---------------3-3---------|

This is the A progression:
E----------------------------------------------------------------------------|
B---2-2----------------------------------------------------------------------|
G---2-2----------------------------------------------------------------------|
D---2-2-----2-2--4-2---------------------------------------------------------|
A-------3-3------------0-0-0-0-0-0-0-0---------------------------------------|
E----------------------5-5-4-4-3-3-2-2--0------------------------------------|

This is the B progression, which is different than what he plays, but it works. You have
listen to the song to figure out when to change and how to strum it, this is just the
of the chords:

E----------------------------------------------------------------------------|
B-----2----------------------------------------------------------------------|
G---2-2-----1--4--3--2-------------------------------------------------------|
D---1-2-----2--3--2--1-------------------------------------------------------|
A---2-------2--4--3--2-------------------------------------------------------|
E--------3-------------------------------------------------------------------|


Check out Matt Andersen on youtube, or on his website. He is one of the best blues
to ever live. PEACE.
Tap to rate this tab
 
# A B C D E F G H I J K L M N O P Q R S T U V W X Y Z