Matt Andersen - Livin In Sarnia tab

Liviní In Sarnia - Mike Stevens and Matt Andersen
Standard Tuning


|-------------|--------------------|-----------------|--------------------|
|-------------|--------------------|-------------3---|--3/5--3--0---------|
|-----0-2/4---|--2/4-2--2/4/2--0---|------0--2/4-----|------------0--2/4--|
|-0h2---------|--------------------|--0h2------------|--------------------|
|-------------|--------------------|-----------------|--------------------|
|-------------|--------------------|-----------------|--------------------|

|---------------------|
|---------------------|
|--4/2-0-----0-2-0----|
|--------0-2----------|
|---------------------|
|---------------------|


G
One fish, two fish, catfish
		  C
Jumpin just for me
G
A big boned girl
		    C
Danciní just for me
G
Open arms
		   C
Reachin out for me
	G
Every friend I know
		      C
Is sittin here with me

|-------|--------------------------------|-------------------------------------|
|-------|-----------------------3--------|-----------------------3-------------|
|-----0-|------0----0----0--2/4---4/2--0-|------0-----0-----0-2/4--4/2-0----0--|
|--0h2--|---0h2--0h2--0h2----------------|---0h2---0h2---0h2-------------0h2---|
|-------|--------------------------------|--3-----3-----3----------------------|
|-------|--3----3----3-------------------|-------------------------------------|

|----------------------|-----------------------|
|----------------------|-----------------------|
|------0----0----0-----|-----0----0----0-------|
|---0h2--0h2--0h2------|--0h2--0h2--0h2--0h2-0-|
|-------------------2--|-3----3----3-----------|
|--3----3----3----3----|-----------------------|


No first in line
We all get the same
No crooked lies
No feeling shame
Weíve got big wide grooves
I playin on my radio
My favourite tune
To sooth my soul

No win or lose
We all get along
No left or right
No right, no wrong
Oh this paradise
Is somethin I can see
Its all right here
If we just look it will be

One fish, two fish, catfish
Jumpin just for me
A big boned girl
Danciní just for me
Open arms
Reachin out for me
Every friend I know
Is sittin here with me

Every friend that Iíve know
Is sittin here
Sittin here with me
Tap to rate this tab
 
# A B C D E F G H I J K L M N O P Q R S T U V W X Y Z