Song name
# A B C D E F G H I J K L M N O P Q R S T U V W X Y Z

Matt Andersen - Im On Fire tab

Hey guys, here is the tab for Matt A's version of I'm on Fire by Springsteen.

First of all, it's in drop D, so tune down. I am just going to tab the chords out for 
you, and you can figure out the strum patterns. Here it is:

Intro:

E--------0--------------0---------------------|
B--------3--------------3---------------------|
G--------2--------------2---------------------|
D--------0--------0-0---0--------0-0----------|
A--------0----0h2-------0----0h2--------------|
E-0------0------------0-0---------------------|

after second time:

E--------0--------------0--------------------0-|
B--------3--------------3--------------------3-|
G--------2--------------2--------------------2-|
D--------0--------0-0---0--------------------0-|
A-----2--2----0h2-----2-2--------------------0-|
E--------0--------------0--------2^3-0-0---0-0-|

Do this intro progression twice, then start the verses

Verse:


E--------0------------|
B--------3------------|
G--------2------------|
D--------0------------|
A--------0------------|
E--------0------------|

Hey little girl is you daddy home, did he go and leave you all alone


E--------0----------------------0----|
B--------5----------------------3----|
G--------4----------------------2----|
D--------0----------------------0----|
A--------x----------------------2----|
E--------5----------------------x----|

     Mmmmhmmm, I've got a bad desire

E--------0--------------------0------------0--------|
B--------5--------------------2------------3--------|
G--------4--------------------2------------2--------|
D--------0--------------------2------------0--------|
A--------x--------------------0------------0--------|
E--------5--------------------0------------0--------|


      Woahhhh, Woahhhhhh, Woaahhhhhh , I'm on fire


Repeat for the rest of the verses

BRIDGE


E--------0------------0----------------------------|
B--------3------------5----------------------------|
G--------2------------4----------------------------|
D--------0------------0----------------------------|
A--------0------------x----------------------------|
E--------0------------5----------------------------|

Sometimes it's like someone took a knife, baby edgy and dull and drove a

E--------0------------0----------------------------0------|
B--------3------------5----------------------------3------|
G--------2------------4----------------------------2------|
D--------0------------0----------------------------0------|
A--------0------------x----------------------------2------|
E--------0------------5----------------------------x------|

        six inch valley through the middle of my skull

That is it! Listen to the song to hear the strumming, and when the chord changes are. I 
tried to line up the chord changes with the lyrics, but it may not post right.

Enjoy,
Lee
Tap to rate this tab
 
# A B C D E F G H I J K L M N O P Q R S T U V W X Y Z