Song name
# A B C D E F G H I J K L M N O P Q R S T U V W X Y Z

Matt Bennett - I Think Youre Swell tab

Intro:  A                   E                   A                  Asus
E---------------------------------------------------------------------|
B-----2---------2---------0---------0---------2---------2--------3----|
G---2--2-2----2--2-2----1--1-1----1--1-1----2--2-2----2--2-2---2--2-2-|
D-------2---------2---------2---------2---------2---------2--------2--|
A-0---------0-----------------------------0---------0---------0-------|
E---------------------0---------0-------------------------------------|
      A
E-------------|
B-----2-------|
G---2--2-2----| X3
D-------2-----|
A-0-----------|
E-------------|

Verse:  D       A       E      A   Verse Ending:D   A       E       D
E----2-----------------------------    E----2-----------------------2------|
B---3-3-3----2-------0-------2-----    B---3-3-3----2-------0------3-3--3--|
G------2----2-2-2---1-1-1---2-2-2-- X4 G------2----2-2-2---1-1-1-------2---|
D-0------------2-------2-------2---    D-0------------2-------2---0--------|
A----------0---------------0-------    A----------0------------------------|
E------------------0---------------    E------------------0----------------|

        A                   E                   A                Asus
E---------------------------------------------------------------------|
B-----2---------2---------0---------0---------2---------2--------3----|
G---2--2-2----2--2-2----1--1-1----1--1-1----2--2-2----2--2-2---2--2-2-|
D-------2---------2---------2---------2---------2---------2--------2--|
A-0---------0-----------------------------0---------0---------0-------|
E---------------------0---------0-------------------------------------|

      A                               E                   A
E------------------------------------------------------------------------|
B-----2-----------2---------2---------0---------0---------2---------2----|
G---2--2-2------2--2-2----2--2-2----1--1-1----1--1-1----2--2-2----2--2-2-|
D-------2-----------2---------2---------2---------2---------2---------2--|
A-0-----------0---------0-----------------------------0---------0--------|
E---------------------------------0---------0----------------------------|

  Asus       A
E--------------------|
B----3--------2------|
G--2--2-2---2--2-2---| Repeat verse and verse ending
D------2--------2----|
A-0-------0----------|
E--------------------|

Chorus: D                 A
E----2--------2----------------------------|
B---3-3-3----3-3-3------2-----------2------|
G------2--------2-----2--2-2------2--2-2---|   X3
D-0--------0--------------2-----------2----|
A-------------------0-----------0----------|
E------------------------------------------|

Chorus Ending:D        A         E
E----2--------2-----------------------|
B---3-3-3----3-3-3------2--------0----|
G----2--------2-----2--2-2----1-1-1---|
D-0--------0--------------2--------2--|
A-------------------0-----------------|
E------------------------------0------|

     E                              A
E--------------------------------------------------|
B-----0---------0--------0----------2---------2----|
G---1--1-1----1--1-1----1--1-1----2--2-2----2--2-2-|
D-------2---------2---------2---------2---------2--|
A-------------------------------0---------0--------|
E-0---------0--------0-----------------------------|

     E                   A
E------------------------------|
B-----0---------0---------2----|
G---1--1-1----1--1-1----2--2-2-|
D-------2---------2---------2--|
A---------------------0--------|
E-0---------0------------------|

      A         Asus        A
E------------------------------------------------------|
B------2---------3----------2-----------2---------2----|
G----2--2-2----2--2-2-----2--2-2------2--2-2----2--2-2-|
D--------2---------2----------2-----------2---------2--|
A--0----------0--------0-----------0---------0---------|
E------------------------------------------------------|

   E                   A          Asus
E----------------------------------------|
B------0---------0---------2--------3----|
G----1--1-1----1--1-1----2--2-2---2--2-2-|
D--------2---------2---------2--------2--|
A---------------------0----------0-------|
E-0---------0----------------------------|

Verse:  D       A       E      A       Verse Ending:D      A       E       D
E----2-----------------------------    E----2-----------------------2-----|
B---3-3-3----2-------0-------2-----    B---3-3-3----2-------0------3-3--3-|
G------2----2-2-2---1-1-1---2-2-2-- X4 G------2----2-2-2---1-1-1-------2--|
D-0------------2-------2-------2---    D-0------------2-------2---0-------|
A----------0---------------0-------    A----------0-----------------------|
E------------------0---------------    E------------------0---------------|

        A                   E                   A                  Asus
E---------------------------------------------------------------------|
B-----2---------2---------0---------0---------2---------2--------3----|
G---2--2-2----2--2-2----1--1-1----1--1-1----2--2-2----2--2-2---2--2-2-|
D-------2---------2---------2---------2---------2---------2--------2--|
A-0---------0-----------------------------0---------0---------0-------|
E---------------------0---------0-------------------------------------|

      A                               E                   A
E-----------------------------------------------------5--------|
B-----2-----------2---------2---------0---------0-----5--------|
G---2--2-2------2--2-2----2--2-2----1--1-1----1--1-1--6--------|
D-------2-----------2---------2---------2---------2---7--------|
A-0-----------0---------0-----------------------------7--------|
E---------------------------------0---------0---------5--------|
Tap to rate this tab
 
# A B C D E F G H I J K L M N O P Q R S T U V W X Y Z