Song name
# A B C D E F G H I J K L M N O P Q R S T U V W X Y Z

Matt Caplan - Sideways tab

Song: Sidways
Band: Citizen Cope ft Santana
Tuning: Standard


Capo on 5th fret


Intro

e|------------------------------------------------|------------------------------------------------|
B|------------------------------------------------|------------------------------------------------|
G|------------------------------------------------|------------------------------------------------|
D|-0--~--0.----0--~--0-000-2--~--2.----2--~--2-222|-2--~--2.----2--~--2-222-2--~--2.----2--~--2-222|
A|-2--~--2.----2--~--2-222-0--~--0.----0--~--0-000|-1--~--1.----1--~--1-111-0--~--0.----0--~--0-000|
E|------------------------------------------------|------------------------------------------------|

Build up to chorus
Strum it a little bit more, no real set rhythm

e|------------------------------------------------|------------------------------------------------|
B|-0--~--0-----0--~--0-000-0--~--0-----0--~--0-000|-0--~--0-----0--~--0-000-0--~--0-----0--~--0-000|
G|-0--~--0-----0--~--0-000-2--~--2-----2--~--2-222|-3--~--3-----3--~--3-333-2--~--2-----2--~--2-222|
D|-2--~--2-----2--~--2-222-2--~--2-----2--~--2-222|-2--~--2-----2--~--2-222-2--~--2-----2--~--2-222|
A|-2--~--2-----2--~--2-222-0--~--0-----0--~--0-000|-1--~--1-----1--~--1-111-0--~--0-----0--~--0-000|
E|------------------------------------------------|------------------------------------------------|

Chorus
No set rhythm, just strum the chords how you like

e|-0-----0-----0-----0-000-2-----2-----2-----2-222|-0-----0-----0-----0-000-0-----0-----0-----0-000|
B|-0-----0-----0-----0-000-3-----3-----3-----3-333|-0-----0-----0-----0-000-0-----0-----0-----0-000|
G|-0-----0-----0-----0-000-4-----4-----4-----4-444|-3-----3-----3-----3-333-2-----2-----2-----2-222|
D|-2-----2-----2-----2-222-4-----4-----4-----4-444|-2-----2-----2-----2-222-2-----2-----2-----2-222|
A|-2-----2-----2-----2-222-2-----2-----2-----2-222|-1-----1-----1-----1-111-0-----0-----0-----0-000|
E|-0-----0-----0-----0-000------------------------|------------------------------------------------|

Tap to rate this tab
 
# A B C D E F G H I J K L M N O P Q R S T U V W X Y Z