Song name
# A B C D E F G H I J K L M N O P Q R S T U V W X Y Z

Matt Cardle - Starlight tab

-------------------------------------------------------------------------------
                                                 Starlight - Matt Cardle
-------------------------------------------------------------------------------

Tuning: Standard

e|----12---------------------------|
B|-------10-9-10-------------------|
G|---------------11-9---9----------|
D|--------------------11-----------|
A|---------------------------------|
E|---------------------------------|
Tap to rate this tab
# A B C D E F G H I J K L M N O P Q R S T U V W X Y Z