Matt Chaney - Donuts Go Nuts tab

----------------------------------------------------------------------------                   
Donuts, Go Nuts! - Matt "Chainsaw" Chaney
----------------------------------------------------------------------------
Tabbed by:Jordan
Email:jordan_l1@hotmail.co.uk

Tuning:Standard

e|-7---7---7---x----7---7---7---x----7---7---7---x----7---7---7---x--------|
B|-8---8---8---x----8---8---8---x----8---8---8---x----8---8---8---x--------|
G|-7---7---7---x----7---7---7---x----7---7---7---x----7---7---7---x--------|
D|-9---9---9---x----9---9---9---x----9---9---9---x----9---9---9---x--------|
A|-10--10--10--x----10--10--10--x----10--10--10--x----10--10--10--x--------|
E|-7---7---7---x----7---7---7---x----7---7---7---x----7---7---7---x--------|

e|-7---7---7---x----7---7---7---x----7---7---7---x----7---7---7---x--------|
B|-7---7---7---x----7---7---7---x----7---7---7---x----7---7---7---x--------|
G|-8---8---8---x----8---8---8---x----8---8---8---x----8---8---8---x--------|
D|-9---9---9---x----9---9---9---x----9---9---9---x----9---9---9---x--------|
A|-9---9---9---x----9---9---9---x----9---9---9---x----9---9---9---x--------|
E|-7---7---7---x----7---7---7---x----7---7---7---x----7---7---7---x--------|

e|-8---8---8---x----8---8---8---x----8---8---8---x----8---8---8---x--------|
B|-8---8---8---x----8---8---8---x----8---8---8---x----8---8---8---x--------|
G|-9---9---9---x----9---9---9---x----9---9---9---x----9---9---9---x--------|
D|-10--10--10--x----10--10--10--x----10--10--10--x----10--10--10--x--------|
A|-10--10--10--x----10--10--10--x----10--10--10--x----10--10--10--x--------|
E|-8---8---8---x----8---8---8---x----8---8---8---x----8---8---8---x--------|

e|-5---5---5---x----5---5---5---x----5---5---5---x----5---5---5---x--------|
B|-5---5---5---x----5---5---5---x----5---5---5---x----5---5---5---x--------|
G|-5---5---5---x----5---5---5---x----5---5---5---x----5---5---5---x--------|
D|-7---7---7---x----7---7---7---x----7---7---7---x----7---7---7---x--------|
A|-7---7---7---x----7---7---7---x----7---7---7---x----7---7---7---x--------|
E|-5---5---5---x----5---5---5---x----5---5---5---x----5---5---5---x--------|

                 Repeat as many times as your heart desires

Ukelele Solo!!!

e|-7--8-10--8-7--7----7-7--8-10--8-7--7----7-----7-------------------------|
B|-------------------------------------------10----10--8-7--8-7--8-7----7--|
G|--------------------------------------------------------------------9----|
D|-------------------------------------------------------------------------|
A|-------------------------------------------------------------------------|
E|-------------------------------------------------------------------------|

e|-------------------------------------------------------------------------|
B|-8-7--8-8/10--8--10-10/12--10--12-12/13--12--13-13/15--13--12-13--12-10--|
G|-------------------------------------------------------------------------|
D|-------------------------------------------------------------------------|
A|-------------------------------------------------------------------------|
E|-------------------------------------------------------------------------|

e|-------------------------------------------------------------------------|
B|-12-10--8-7--8--7--8--8/10--8--10--10/12--8------------------------------|
G|-------------------------------------------------------------------------|
D|-------------------------------------------------------------------------|
A|-------------------------------------------------------------------------|
E|-------------------------------------------------------------------------|
Tap to rate this tab
 
# A B C D E F G H I J K L M N O P Q R S T U V W X Y Z