Song name
# A B C D E F G H I J K L M N O P Q R S T U V W X Y Z

Matt Corby - Winter tab

I'm about 99% sure this is right according to this video.
http://www.youtube.com/watch?v=8ApFuAwaYw8

This is technically only the intro but the song is basically the same the whole way
through and live are a few little licks and improvisation. I may have added little parts
that aren't there.

Tabbed by Sarah Basford
Tuning: Standard
Capo: 7th fret


e|--------------------------------------------------------------|
B|--------------------------------------------------------------|
G|-0--2--4-----4---4---4---4---4----4---2---0-------------------|
D|----------------------------------------------0h2-0--0---0----|
A|--------------------------------------------------------------|
E|-3--3--3---3---3---3---3---3------3--3---3----3---3----3---3--|



also at some part he would probably add the octaves so here's a quick little tab for that.


e|-10--12--14------------14---12---10-------------------|
B|--------------------------------------10h12--10-------|
G|-0---2----4------------4----2----0--------------------|
Tap to rate this tab
 
# A B C D E F G H I J K L M N O P Q R S T U V W X Y Z