Song name
# A B C D E F G H I J K L M N O P Q R S T U V W X Y Z

Matt Corby - Brother tab

Grooviest tune.






definitely not 100% accurate tab

Capo 2nd, Standard Tuning



..sleep now under my skin, make..
E|------------------------------||
B|-5-------5------5-------5-----||
G|-----0-------0------0-------0-||
D|---5-------3------5-------3---|| (x2)
A|-3-----3--------3-----3-------||
E|------------------------------||


..sure                 you             try to..
E|------------------------------------|----------------||
B|-12---------12--------7-------7-----|-5-------5------||
G|-------0----------10------0-------0-|------0------0--||
D|----12--------12--------7-------7---|----5------5----||
A|-10------10-----------5-----5-------|-3-----3--------||
E|------------------------------------|----------------||



..conjure the wind and...
E|------------------------------||
B|-5-------5------5-------5-----||
G|-----0-------0------0-------0-||
D|---5-------3------5-------3---|| 
A|-3-----3--------3-----3-------||
E|------------------------------||


..ease                 my             mind..
E|-----------------------------------|----------------||
B|-12---------12--------7-------7----|-5-------5------||
G|-------0----------10------0------0-|------0------0--||
D|----12--------12--------7------7---|----5------5----||
A|-10------10-----------5-----5------|-3-----3--------||
E|-----------------------------------|----------------||


E|------------------------------|
B|-5----5-------3-5-------------|
G|--------------0-0-------------|
D|---5--------------------------|
A|-3------------2-3-------------|
E|------------------------------|





..oh oh oh, oh oh oh, ooooh. oh oh ..
E|-X--------X--------X-------0--0---||
B|-0--------3--------X-------3--5---||
G|-0--------2--------4-------0--0---||
D|-2--------0--------5-------4--5---||
A|-2--------0--------5-------2--3---||
E|-0--------0--------3-------X--X---||






..somebody call out to your brother,       
he's callin' out your name..                  ..oh oh  oh
E|-----|                                  E|-0~----0~--0~-|
B|-5~--|                                  B|-0~----0~--0~-|
G|-0~--|                                  G|-4~----2~--0~-|
D|-5~--|                                  D|-5~----2~--2~-|
A|-3~--|                                  A|-5~----0~--2~-|
E|-X---|                                  E|-3~----0~--0~-|




..hiding under the covers,       
with no one else to blame..                   ..oh oh  oh
E|-----|                                  E|-0~----0~--0~-|
B|-5~--|                                  B|-0~----0~--0~-|
G|-0~--|                                  G|-4~----2~--0~-|
D|-5~--|                                  D|-5~----2~--2~-|
A|-3~--|                                  A|-5~----0~--2~-|
E|-X---|                                  E|-3~----0~--0~-|



..you couldn't help out your own neighbour,       
you couldn't tell it to his face
                               you were fucked up by the blame..     
E|-----|                                  E|-0~----0~--0~-0-0-0-0-0-|
B|-5~--|                                  B|-0~----0~--0~-5-5-5-5-5-|
G|-0~--|                                  G|-4~----2~--0~-0-0-0-0-0-|
D|-5~--|                                  D|-5~----2~--2~-5-5-5-5-5-|
A|-3~--|                                  A|-5~----0~--2~-3-3-3-3-3-|
E|-X---|                                  E|-3~----0~--0~-X-X-X-X-X-|



    ..you cower in the corner..   ..confide in your father..
E|---------------------------------------------------------------|
B|---------------------------3-5----------------------------7-8--|
G|---------------------------0-0----------------------------0-0--|
D|---------------------------4-5----------------------------7-9--|
A|---------------------------2-3----------------------------5-7--|
E|---------------------------------------------------------------|

..let it out and say..       
E|-----------------------------------------|
B|-------12~--3--5------5-----5-------5----|
G|-------0~---0------0-----0------0------0-|
D|-------12~--4----5-----5------5------5---|
A|-------10~--2--3----3-------3-----3------|
E|-----------------------------------------|

             ..let it pass   away
E|-----------------------------------------------------------------|
B|-5-------5------5-------5------8~--7~--12-3-5~-------------------|
G|-----0-------0------0-------0--0~--0~--0--4-0~-------------------|
D|---5-------3------5-------3----9~--7~--12-0-5~-------------------|
A|-3-----3--------3-----3--------7~--5~--10-2-3~-------------------|
E|-----------------------------------------------------------------|


^^
just something to play along with, hopefully someone can use this as
a starter then perfect a tab for this song!




15 - 02 - 2012

Tap to rate this tab
 
# A B C D E F G H I J K L M N O P Q R S T U V W X Y Z