Song name
# A B C D E F G H I J K L M N O P Q R S T U V W X Y Z

Matt Corby - Big Eyes tab

Matt Corby, Big Eyes
Capo 1st

D1 = Dadd6 no3rd
A up2: 
e--0------|
B--4------|
G--4------|
D--4------|
A---------|
E---------|

Intro

e------------------------------------------------------------------|
B--7/9-7/9/12------7/9--7/9-12-9-7-5-7--5/7/9---7-5-7-9-7-5-2-p0---|
G------------------------------------------------------------------|
D------------------------------------------------------------------|
A-----------------------------------------------------------0------|
E--0---------------------------------7----------7------------------|

e--0-----0---------------------------------------------------------|
B--0-----2p0-------------------------------------------------------|
G--2-----2p0----1--------------------------------------------------|
D--0-----2p0----2--------------------------------------------------|
A---------------2--------------------------------------------------|
E---------------0--------------------------------------------------|

   D1  | A |    E

Vers
Blackout the light
Maybe youíre tired fall
Or stone cold

You fumble and fight
With all the time you spend alone


e----------------------------------------0--------------------------|
B----------4-------------------------2---0--2p0---------------------|
G----------4----------------------4--2---2--2p0---1-----------------|
D--4/6-4-2-4-----------------4-6-----2---0--2p0---2-----------------|
A-------------------------------------------------2-----------------|
E-------------------------------------------------0-----------------|

         | B |                     | A | D*| A |  E 


Chorus
                 A      D1 (A up2)
Cause itís only fair
                A       D1 (A up2)
Itís love and war
                A       D1
And darkness is all youíll ever know
                        E
If I donít love you more

(fill)
e--------------------------------------0---------------------------|
B--------------------------------------0---------------------------|
G-----4------6-----------6/4-----------2p0----------------------1--|
D---6------6---------------------------0------------------------2--|
A---------------------------------------------------------------2--|
E---------------------------------------------------------------0--|
 darkness is all  you'll ever   know,     if I don't love you more


Vers
A keep in your cage
Withered by aging eyes and skin

You call this your home
A colorful dragging dried up drone

Chorus
Cause itís only fair
Itís love and war
And darkness is all youíll ever know
Oh darkness is all youíll ever know
Darkness is all youíll ever know
If I donít love you more

E          B      A       E
Loveless sorrow kindly borrowed
The only thing my soulís now hollow
Loveless sorrow kindly borrowed
The only thing my soulís now hollow

Chorus
Cause itís only fair
Itís love and war (ooh)
And darkness is all youíll ever know
If I donít love you more 

Intro
Tap to rate this tab
# A B C D E F G H I J K L M N O P Q R S T U V W X Y Z