Song name
# A B C D E F G H I J K L M N O P Q R S T U V W X Y Z

Matt Corby - Souls A Fire tab

e|-------------------------|----------------------------------------|
B|---------4-------1-------|---------4--------1---------------------|
G|-----------5--3------0h2-|----2p0-----5--3-------2b---------------|
D|-------------------------|----------------------------------------|
A|---3---------------------|----------------------------------------|
E|-5-----------------------|----------------------------------------|

e|--------------------------------------------------------1p0-------|
B|-------------------------------------------4-4--------------------|
G|-------------5\3-------------------------------5--3----------2/5--|
D|-------3h5-----------5p3p0----------------------------------------|
A|0h3h5---------------------------3p0-------------------------------|
E|------------------------------------------------------------------|

Well he had the poisen in his lungs
e|------------------------------------------------------------------|
B|--4--------2------------------------------------------------------|
G|----5---3----2----------------------------------------------------|
D|------------------------------------------------------------------|
A|------------------------------------------------------------------|
E|------------------------------------------------------------------|

And it will become undone
e|------------------------------------------------------------------|
B|--4--------2------------------------------------------------------|
G|----5---3----2b---------------------------------------------------|
D|------------------------------------------------------------------|
A|------------------------------------------------------------------|
E|------------------------------------------------------------------|

Some sort of freak that feels no pain
e|------------------------------------------------------------------|
B|4-4--------2------------------------------------------------------|
G|----5---3----2/5--------------------------------------------------|
D|------------------------------------------------------------------|
A|------------------------------------------------------------------|
E|------------------------------------------------------------------|

Walked through the fire like it feels like rain
e|------------------------------------------------------------------|
B|--4--------2------------------------------------------------------|
G|----5---3----2----------------------------------------------------|
D|------------------------------------------------------------------|
A|------------------------------------------------------------------|
E|------------------------------------------------------------------|
Tap to rate this tab
 
# A B C D E F G H I J K L M N O P Q R S T U V W X Y Z