Song name
# A B C D E F G H I J K L M N O P Q R S T U V W X Y Z

Matt Corby - Big Eyes tab

Matt Corby - Big Eyes
Tab by Anthony Chmiel


DROP D TUNING, PLUS A CAPO ON THE 3RD FRET.
I cross checked this with some of his live footage, he definitely plays in Drop D with a 
capo on the 3rd unlike some of the other versions I've seen up.



Intro:
e------------5------------------5-------------------------------|
b-5/7---5h7-----------7-5-7-------7---7/5p3---3h5---3h5/7-------|
g---------------------------------------------------------------|
d---------------------------------------------------------------|
a----------------------------------------------0----------------|
D-0---------------0----------0----------------------------------|

e---------------------------------------------------|
b-7/5-5-7----5/7-5-3---0-------------------------3--|
g----------------------0----2---0----0-----------2--|
d----------------------0----0---0----2h4-2--0----0--|
a-0-------0-----------------0---5----0-----------0--|
D------------------------------------------------0--|

Verses - ad-libbed every time with strumming
e-------------------------------------------|
b----------2----------------------------3---|
g----------0--------------2-------------2---| x2
d-2/4-2-0--2----------2-4-----(0-0-0-0)-0---|
a----------0-------------------2-4-5-7--0---|
D------------------------------5-5-5-5--0---|

Chorus 1 - each time is ad-libbed a bit differently
e-------------------------------------|
b-------------------------------3-----|
g-----------(0-0-0-0)-----------2-----|
d-(0-0-0-0)--2-4-2-2-(0-0-0-0)--0-----|
a--2-4-5-7---0-0-0-0--2-4-5-7---0-----|
D--5-5-5-5---2-2-2-2--5-5-5-5---0-----|
Chorus 2 you repeat the first time progressions a second time before going to the D chord.

Middle Section - strummed. The 1st fret on the second chord is added halfway through 
that chord
e--------------------------|
b--3-----1---(0)--(0)------|
g--2---0------0----0-------|
d--0---2------0----2-------| x4
a--0---0------2----0-------|
D--0----------5----2-------|
Last time play the last chord for twice as long


Outro
e------------5------------------5-------------------------------|
b-5/7---5h7-----------7-5-7-------7---7/5p3---3h5---3h5/7-------|
g---------------------------------------------------------------|
d---------------------------------------------------------------|
a----------------------------------------------0----------------|
D-0---------------0----------0----------------------------------|

e------------------------------------------------------|
b-7/5-5-7----5/7-5-3---0----------------------------3--|
g----------------------0----2---0----0--------------2--|
d----------------------0----0---0----2p0------------0--|
a-0-------0-----------------0---5----0---0h2-0--0---0--|
D-----------------------------------------------0---0--|
Tap to rate this tab
 
# A B C D E F G H I J K L M N O P Q R S T U V W X Y Z