Song name
# A B C D E F G H I J K L M N O P Q R S T U V W X Y Z

Matt Corby - My False tab

My False Matt Corby Tab
standard tuning 
capo 7
Intro/verse
its not 100% perfect but it sounds good.

                                      strum 
                                      d  d  u d u   d  d  u d u
e|---------------------------------------------------------------|
B|--------0-------0-------0-----------3--3--3-3-3---3--3--3-3-3--|
G|---0------0h2-----2h4-----2p0---0---0--0--0-0-0---2--2--2-2-2--|
D|------0-----------------------0-----2--2--2-2-2---0--0--0-0-0--|
A|------------------------------------3--3--3-3-3----------------|
E|---3----------3-------3----------------------------------------|

e|----------------------------------------------------------------|
B|--------0-------0-------3----------3--3--3-3-3------------------|
G|---0------0h2-----2h4------0-------2--2--2-2-2---2h4p2p0--------|
D|------0----------------------------0--0--0-0-0-----------0h2p0--|
A|----------------------------------------------------------------|
E|---3----------3-------3-----------------------------------------|

e|---------------------------------------------------------------|
B|--------0-------0-------------------3--------------------------|
G|---0------0h2------2h4----2p0----------0-----------------------|
D|------0-----------------------------------0--------------------| x2
A|---------------------------------------------------------------|
E|---3----------3---------3-------3-------------3----------------|


| /  slide up
| \  slide down
| h  hammer-on
| p  pull-off
| ~  vibrato
| +  harmonic
| x  Mute note
Tap to rate this tab
# A B C D E F G H I J K L M N O P Q R S T U V W X Y Z