Song name
# A B C D E F G H I J K L M N O P Q R S T U V W X Y Z

Matt Corby - Made Of Stone tab

Capo on 2nd Fret

Intro/verse:
e|-------0-----------0-----------0-----------0-----|
B|---1-------1---1-------1---1-------1---1-------1-|
G|-2---2---2---2---2---2---4---4---4---4---4---4---|
D|-------------------------0-----------------------|
A|-3-----------------------------------------------|
E|-------------------------------------------------|

e|-------0-----------0-----------0-----------0-----|
B|---1-------1---1-------1---1-------1---1-------1-|
G|-2---2---2---0---0---0---2---2---2---0---0---0---|
D|-------------------------------------------------|
A|-------------------------------------------------|
E|-1-----------------------1-----------------------|
                           ^
                           At this spot Matty does different things
                           every time. You can ether keep G going
                           with 0 instead of switching to 2. Or just
                           do whats already there.

and sometimes he does this(G can still be 0 or 2 it doesnt matter):
e|-------0-----3-----5-----|
B|---1-------1-----1-----1-|
G|-2---2---2-----2-----2---|
D|-------------------------|
A|-------------------------|
E|-1-----------------------|


Pre-Chorus:
e|-----------------------|
B|-1--0--1-----1---0-----|
G|-2--0--2-----2---0-----|
D|-2--0--4-----3---0-----|
A|-0---------------------|
E|----3--2-----1---3-----|

Chorus:
e|---------------------|
B|-1--1--0--4---4p0----|
G|-2--0--0--0---0------|
D|-3--2--0-------------|
A|----3----------------|
E|-1-----3-------------|
               ^
               some times he adds that part to it.


Thats pretty much it! You may have to listen to it to realize where some
of the chords are fitting but I think everything sounds pretty good to me.
Let me know if you have any suggestions. Have fun!!
Tap to rate this tab
# A B C D E F G H I J K L M N O P Q R S T U V W X Y Z