Song name
# A B C D E F G H I J K L M N O P Q R S T U V W X Y Z

Matt Costa - Lilacs tab

Tuning: Standard

   Verse & Chorus:
e -----------------------------------------------------------------|
B -----------------------------------------------------------------|
G -8-8-8-8-8-8---------------------8-8-8-8-8-8---------------------|
D -8-8-8-8-8-8-8-8-8-8-8-8-8-8-8-8-8-8-8-8-8-8-8-8-8-8-8-8-8-8-8-8-|
A -6-6-6-6-6-6-8-8-8-8-8-8-8-8-8-8-6-6-6-6-6-6-8-8-8-8-8-8-8-8-8-8-|
E -------------6-6-6-6-6-6-6-6-6-6-------------6-6-6-6-6-6-6-6-6-6-|

e -----------------------------------------------------------------|
B -----------------------------------------------------------------|
G -6-6-6-6-6-6-6-6-6-6-6-6-5-5-5-5-5-5-5-5-5-5-5-5-----------------|
D -6-6-6-6-6-6-6-6-6-6-6-6-6-6-6-6-6-6-6-6-6-6-6-6-----------------|
A -6-6-6-6-6-6-6-6-6-6-6-6-6-6-6-6-6-6-6-6-6-6-6-6-----------------|
E -4-4-4-4-4-4-4-4-4-4-4-4-4-4-4-4-4-4-4-4-4-4-4-4-----------------|

  2ND Guitar:

e ---6---6---6-----6---6---6---4---6---4---4---4---6---------------|
B -----------------------------------------------------------------|
G -8---7---7---7/6---7---7---6-----------6---5---------------------|
D -----------------------------------------------------------------|
A -----------------------------------------------------------------|
E -----------------------------------------------------------------|

  Bridge:

e -----------------------------------------------------------------|
B -----------------------------------------------------------------|
G -----------------------------------------------------------------|   (x2)
D -3-3-3-3-3-3-3-3-3-3-3-3-6-6-6-6-6-6-6-6-6-6-6-6-----------------|
A -3-3-3-3-3-3-3-3-3-3-3-3-6-6-6-6-6-6-6-6-6-6-6-6-----------------|
E -1-1-1-1-1-1-1-1-1-1-1-1-4-4-4-4-4-4-4-4-4-4-4-4-----------------|


e ----------------------|
B ----------------------|
G -8---------5----------|    (x4)
D -8----8----6----------|
A -6----8----6----------|
E ------6----4----------|

  End:

e -----------------|
B -----------------|
G -5----8----------|
D -6----8----------|
A -6----6----------|
E -4---------------|
Tap to rate this tab
 
# A B C D E F G H I J K L M N O P Q R S T U V W X Y Z